Song name
# A B C D E F G H I J K L M N O P Q R S T U V W X Y Z

Minus The Bear - Im Totally Not Down With Robs Alien tab

Dave (Intro)
* = Left hand

|-------------------------| 
|--------------15~--------| 
|-*7~---------------------| 
|-*7~-/9------------------|
|-*5~-/9------------------| 
|-*5~-/9------------------| 

|------------------*12--14-| 
|--------------15----------| 
|-*7~----------------------| 
|-*7~-/9-------------------| 
|-*5~-/9-------------------| 
|-*5~-/9-------------------| 

                |---High tapped part...........
|------------------------------17----19-p0--| 
|--------------15----p0---15*--17*----------| 
|-*7~-------------------16------------------| 
|-*7~-/9------------------------------------| 
|-*5~-/9------------------------------------| 
|-*5~-/9------------------------------------| 

|------------------*12----------| 
|--------------15-------p0--12--| 
|-*7~---------------------------| 
|-*7~-/9------------------------| 
|-*5~-/9------------------------| 
|-*5~-/9------------------------| 

Tap to rate this tab
# A B C D E F G H I J K L M N O P Q R S T U V W X Y Z