Song name
# A B C D E F G H I J K L M N O P Q R S T U V W X Y Z

Misc Cartoons - Slayers Try Opening Theme tab

Help us improve GuitareTab! Take a short survey!
here's the guitar part in the slayers try opening, i'm supprised no one has tabbed it 
so here it is, i'm still trying to work out the strumming part, i'll update later. Enjoy!

/= slide up
~~= Vibrato
h= hammer on

E|--------------------12-13--------------------12-13---------------|
G|-14/15~~--15-15-15---------14/15~~--15-15-15-------12h13-12h13~~-|
B|-----------------------------------------------------------------|
D|-----------------------------------------------------------------|
A|-----------------------------------------------------------------|
E|-----------------------------------------------------------------|

E|-----------------------------------------10--12---------10--12---|
G|-10-10-10--11--12--9h10-9h10~~-----9h10-----------9/10-----------|
B|-----------------------------------------------------------------|
D|-----------------------------------------------------------------|
A|-----------------------------------------------------------------|
E|-----------------------------------------------------------------|

E|-15h17-15h17-15h17-----------------------------------------------|
G|-----------------------------------------------------------------|
B|-----------------------------------------------------------------|
D|-----------------------------------------------------------------|
A|-----------------------------------------------------------------|
E|-----------------------------------------------------------------|
Related for Slayers Try Opening Theme tab