Song name
# A B C D E F G H I J K L M N O P Q R S T U V W X Y Z

Misc Cartoons - Danny Phanton Theme tab

Help us improve GuitareTab! Take a short survey!
I Got Bored So I Flipped On Cartoons To Revert Back To My Childhood Days.
But There Are Only Two Parts To This Song.
Standard Tuning


Main Riff
e|---------------------------------------------|
b|---------------------------------------------|
G|---------------------------------------------|
D|---------------------------------------------|
A|---------------------5b----------------------|
E|-5h7-7-5-7-5-7-5-7-5----7--------------------| 
  pm.......................

Riff 2
e|-4/5-5-----------------------------------------|
b|-4/5-5-----------------------------------------|
G|-----------------------------------------------|
D|-----------------------------------------------|
A|-----------------------------------------------|
E|-----------------------------------------------|
  
That's It!
Related for Danny Phanton Theme tab