Song name
# A B C D E F G H I J K L M N O P Q R S T U V W X Y Z

Misc Cartoons - Avatar The Last Airbender - Dont Let The Cave In Get You Down tab

Title: Don't Let The Cave In Get You Down
Arist: Avatar: The Last Airbender
Tabbed by: iborn4music
Tuning: Standard (EADGBe)

Hey guys I noticed that this tab isnt ANYWHERE lol. So
here's to you Avatar fans and guitar players :). It's
written for some other instrument, mandolin or something,
but it sounds fine on guitar. Here you go! If you have any
questions, comments, or corrections feel free!

Play twice without singing, then the lyrics start.

  Oh! Don't let the......
e |------2--2/5---2--------------------------------------|
B |---5--------------5--2--5--2--------------------------|
G |------------------------------------------------------|   x6
D |------------------------------------------------------|
A |------------------------------------------------------|
E |------------------------------------------------------|

You continue to play that until he says "into a frown." thats
where you switch to playing this.

e |------------------------------------------------------|
B |-----2---2---2---2------------------------------------|
G |---2---2---2---2--------------------------------------|
D |------------------------------------------------------|
A |------------------------------------------------------|
E |------------------------------------------------------|

Next it goes

    when the tunnels....     you need a clown! HEY!....
e |------------------3-3-3-3-5-5-5-5---------------------|
B |----------2-2-2-2-2-2-2-2-2-2-2-2---------------------|
G |--2-2-2-2-2-2-2-2-2-2-2-2-2-2-2-2---------------------|
D |------------------------------------------------------|
A |------------------------------------------------------|
E |------------------------------------------------------|


Back to this :

      Dont let the cave in get you down
e |------2--2/5---2--------------------------------------|
B |---5--------------5--2--5--2--------------------------|
G |------------------------------------------------------|   x2
D |------------------------------------------------------|
A |------------------------------------------------------|
E |------------------------------------------------------|


Then end on this, letting the note ring:

       Sokka....
e |------------------------------------------------------|
B |----5-------------------------------------------------|
G |------------------------------------------------------|
D |------------------------------------------------------|
A |------------------------------------------------------|
E |------------------------------------------------------|


Here's all the lyrics in one spot:

Oh! Dont let the cave in get you down.
Dont let the falling rocks turn your smile
into a frown.
When the tunnels at its darkest that's when, YOU NEED A CLOWN! hey!
Dont let the cave in get you down, Sokka.....

Hope you enjoy!


h - hammer on
p - pull off
b - bend string up
r - release bend
/ - slide up
\ - slide down
v - vibrato (sometimes written as ~)
x - mute
Tap to rate this tab
 
# A B C D E F G H I J K L M N O P Q R S T U V W X Y Z