Song name
# A B C D E F G H I J K L M N O P Q R S T U V W X Y Z

Misc Cartoons - Mirrors Edge - Still Alive tab

I think this is right.


Part 1
E||-11--11-9----------9--9-9---------------||
B||----------11--11-9----------------------||
G||---------------------------11-10--10-8--||
D||----------------------------------------||
A||----------------------------------------||
E||----------------------------------------||


Solo
E||-----------||
B||----11-10--||
G||-10--------|| X5
D||-----------||
A||-----------||
E||-----------||



Part 2
E||-11--11-11-9-----------------9--9-9-----------------||
B||--------------11--11-11--9-9------------------------||
G||-------------------------------------11-10-10-10-8--||
D||----------------------------------------------------||
A||----------------------------------------------------||
E||----------------------------------------------------||

Can't remember more of it, sorry.
Tap to rate this tab
 
# A B C D E F G H I J K L M N O P Q R S T U V W X Y Z