Song name
# A B C D E F G H I J K L M N O P Q R S T U V W X Y Z

Misc Cartoons - Dragon Ball Z Theme tab

  I've never taken lessons and I know nothing about musical timing, so I'm not putting 
measure bars on this tab, but I'm sure you
can figure it out, it's not too confusing.

  There is a little bit of my own play style in this that matches the song. I may slide 
it's not necessary, etc. So if some of
that is in here, my apologies.

x = Muted string
~ = Held note
\ = Slide down
/ = Slide up
h = Hammer on
b = Bend
r = Release
b( )= Bend to the pitch of the note in parentheses

Enjoy!


e|---------------------------------------------------------|
B|---------------------------------------------------------|
G|-14-14-14-14-14-14-14-14-16-16-16-16-16-16-16-16---------|
D|-x--x--x--x--x--x--x--x--x--x--x--x--x--x--x--x----------|
A|-12-12-12-12-12-12-12-12-14-14-14-14-14-14-14-14---------|
E|-------------------------------------------------\-------|

e|---------------------------------------------------------|
B|---------------------------------------------------------|
G|---------------5~------6-7-9-7~-6-------6-7-----6-7------|
D|---------------5~---7h9----------9-7-7h9---7-7h9---5-5/7-|
A|-0-0-0-0-0-0-0-3~----------------------------------------|
E|-0-0-0-0-0-0-0-------------------------------------------|

e|---------------------------------------------------------|
B|------------------------------------10-12-14-12-10-10~---|
G|----6-7-9-7~-6-------6-7--9-7-----11---------------------|
D|-7h9----------9-7-7h9---7----10-9------------------------|
A|---------------------------------------------------------|
E|---------------------------------------------------------|

e|---------------------------------------------------------|
B|-12-14~-10-12-14b(15)r14-12-10-10~-10-12-14-12~-10-10----|
G|---------------------------------------------------------|
D|---------------------------------------------------------|
A|---------------------------------------------------------|
E|---------------------------------------------------------|

e|---------------------------------------------------------|
B|--------10-12-14-15-12-10\-------------------------------|
G|-11-9-11-------------------------------------------------|
D|---------------------------------------------------------|
A|---------------------------------------------------------|
E|---------------------------------------------------------|

Guitar II: (start at last note of Lead Guitar)
e|-------------------------------------------------------------- |
B|-------------------------------------------------------------- |  __
G|-----------------------14-14-14-14-14-14-14-14-16-16-16--   -- |
D|-----------------------x--x--x--x--x--x--x--x--x--x--x---   -- |
A|-----------------------12-12-12-12-12-12-12-12-14-14-14--   -- |
E|---------------------------------------------------------   -- |
                                                               | x2
e|---------------------------------------------------------   -- |
B|---------------------------------------------------------   -- |
G|-16-16-16-16-16------------------------------------------   -- |
D|-x--x--x--x--x-------------------------------------------   -- |
A|-14-14-14-14-14------------------------------------------  _-- |
E|-------------------------------------------------------------- |

e|---------------------------------------------------------|
B|---------------------------------------------------------|
G|---------------5~----------------------------------------|
D|---------------5~----------------------------------------|     x2
A|-0-0-0-0-0-0-0-3~----------------------------------------|
E|-0-0-0-0-0-0-0-------------------------------------------|

Lead Guitar:
e|---------------------------------------------------------|
B|---------------------------------------------------------|
G|-----------------6-7-9-7~-6-------6-7--------------------|
D|--------------7h9----------9-7-7h9---7---10--12----------|
A|---------------------------------------11--11--11-9/11---|
E|---------------------------------------------------------|

e|---------------------------------------------------------|
B|------------------------------------10-12-14-12~-10-10---|
G|----6-7-9-7~-6-------6-7--9-7----11----------------------|
D|-7h9----------9-7-7h9---7----10-9------------------------|
A|---------------------------------------------------------|
E|---------------------------------------------------------|

e|---------------------------------------------------------|
B|-10-12-14b(15)r14-12-12/14-10--10-12-14-12~-10-10--------|
G|-------------------------------------------------11-9----|
D|---------------------------------------------------------|
A|---------------------------------------------------------|
E|---------------------------------------------------------|

Note: when it gets to the repetitive "A" note on the 10th fret,
      there are some random pinch harmonics thrown in.
e|--------------12-12-----------------9-10-12-10~-9--------|
B|---10-12-14-15-----10b(x16)/14-10h12-------------12-10---|
G|-11------------------------------------------------------|
D|---------------------------------------------------------|
A|---------------------------------------------------------|
E|---------------------------------------------------------|

e|------9--10---------9-10------------9-10-12-10~-9--------|
B|-10h12-12--10--10h12----8-8/10-10h12-------------12-10---|
G|---------------------------------------------------------|
D|---------------------------------------------------------|
A|---------------------------------------------------------|
E|---------------------------------------------------------|

e|------9~-10---12-14-15~-17-------------------------------|
B|-10h12-----10--------------------------------------------|
G|----------------------------------------------5~---------|
D|----------------------------7-5-3-2-2-0~--7~--5~---------|
A|----------------------------7-5-3-2-2-0~--7~--3~---------|
E|----------------------------7-5-3-2-2-0~--5~-------------|
Tap to rate this tab
# A B C D E F G H I J K L M N O P Q R S T U V W X Y Z