Song name
# A B C D E F G H I J K L M N O P Q R S T U V W X Y Z

Misc Cartoons - Pokemon Theme tab

Help us improve GuitareTab! Take a short survey!
My first tab ever.
I learned the Pokemon theme song and had some difficulties with the solo part so I 
I'd make my own tab so I it would be easier and still sounds good.

Please rate!


                         Pokémon Theme Song

-------------------13-15----------------|
------------13--15----------------------|
---12-14-15-----------------------------|
----------------------------------------|
----------------------------------------|
----------------------------------------|

----------------------------------------|
---15----13--------13-------------------|
------14----12-15-----12----------------|
----------------------------------------|
----------------------------------------|
----------------------------------------|

-----------------------------------------------------|
---------------------13-15-17--18-16--15-------------|
----------------12------------------------15---------|
----------------------------------------------15-----|
---15-15-15--13-----------------------------------15-|
-----------------------------------------------------|

------------13-13-----------13--15-17-21b22-21b22-21b22___--|
------13-15-----------13-15---------------------------------|
---15--------------15---------------------------------------|
------------------------------------------------------------|
------------------------------------------------------------|
------------------------------------------------------------|
Related for Pokemon Theme tab