Song name
# A B C D E F G H I J K L M N O P Q R S T U V W X Y Z

Misc Cartoons - Avatar The Last Airbender - Little Soldier Boy tab

-------------------------------------------------------------------------------
		Little Soldier Boy - AVATAR: THE LAST AIRBENDER
-------------------------------------------------------------------------------
Tabbed by: S.Thespian
Email: MetalGarurumon.X@live.com
Tuning:Standard

My first tab, I noticed the other versions are either not newb friendly or don't specify 
pattern/lyrics. So I combined both and wrote out how I play it :3 Hope you guys like 
it. If you have any comments or questions, feel free to email me.


   Leaves from the vine                Falling so slow
e|--------------------------------|----------------------------------------|
B|--------------------------------|----------------------------------------|
G|--------------------------------|----------------------------------------|
D|--------------------------------|----------------------------------------|
A|--7-7----7--5---4---------------|-----7---7---5---4---2------------------|
E|--------------------------------|----------------------------------------|


   Like fragile tiny shells            Drifting in the foam
e|--------------------------------|----------------------------------------|
B|--------------------------------|----------------------------------------|
G|--------------------------------|----------------------------------------|
D|--------------------------------|----------------------------------------|
A|--4-4----4---2---0--------------|-----4---4---2-----0--------------------|
E|--------------------------------|----------------------------------------|

   Little soldier boy                  Comes marching home
e|--------------------------------|----------------------------------------|
B|--------------------------------|----------------------------------------|
G|--------------------------------|----------------------------------------|
D|--------------------------------|----------------------------------------|
A|--7-7----7--5---4---------------|-----7---7---5---4---2------------------|
E|--------------------------------|----------------------------------------|

   Little soldier boy                  Comes marching home
e|--------------------------------|----------------------------------------|
B|--------------------------------|----------------------------------------|
G|--------------------------------|----------------------------------------|
D|--------------------------------|----------------------------------------|
A|--2-2----2--0-------------------|-----2---2---0--------------------------|
E|----------------3---------------|--------------------3-------------------|
Tap to rate this tab
 
# A B C D E F G H I J K L M N O P Q R S T U V W X Y Z