Song name
# A B C D E F G H I J K L M N O P Q R S T U V W X Y Z

Misc Cartoons - My Little Pony Friendship Is Magic Theme tab

Tabbed by: redslime
Email: osiel.6@gmail.com

Tuning: Standard EADGBe
I do not own this song or this cartoon. But the title song is great. 
As accurate as I could possibly make it. To me this sounds perfect. Enjoy!

Intro
e|---7-9-7-----11-----5-7-5-4--------------------------------|
B|---------11------------------5~-----7--7h9--9h10--10h12----|
G|-----------------------------------------------------------|
D|-----------------------------------------------------------|
A|-----------------------------------------------------------|
E|-----------------------------------------------------------|


e|-------------------------------------------------------2/5--5--2------2------|
B|---3--2/3-5--3-----7777------5--8--7b--5-----------3-5------------5-3---5----|
G|------------------------7-7--------------------------------------------------|
D|-----------------------------------------------------------------------------|
A|-----------------------------------------------------------------------------|
E|-----------------------------------------------------------------------------|


e|-------------------------------------------------------------------------7-55----|
B|---333-3--10-12-10~----------5--5-7-5----3h5/7-3--3/10-12-10----55-5-5-7---------|
G|---------------------4444-4------------------------------------------------------|
D|---------------------------------------------------------------------------------|
A|---------------------------------------------------------------------------------|
E|---------------------------------------------------------------------------------|


Outro
e|-----------------------2-5--5--2------2----------|
B|---355--4-5-7-5----3-5------------5-3-----2~-----|
G|-------------------------------------------------|
D|-------------------------------------------------|
A|-------------------------------------------------|
E|-------------------------------------------------|
Tap to rate this tab
 
# A B C D E F G H I J K L M N O P Q R S T U V W X Y Z