Song name
# A B C D E F G H I J K L M N O P Q R S T U V W X Y Z

Misc Cartoons - Frozen - Do You Want To Build A Snowman tab

This is a fingerstyle arrangement I made for this song. 
I looked at the other tabs for this but they didn't seem so accurate. 
So I hope you'll like this one.
I am aware of the timing between the different notes, but if you know the melody, 
you will understand.

  Thanks!

Capo: 3rd fret

Standard tuning

Enjoy!


Intro

E|--------------------------|    |
B|--------1--------1--------|    |
G|-----0--------0--------0--|    |
D|--3--------2--------2-----| x3 |
A|--------------------------|    |
E|--------------------------|    |

E|-------------------------|
B|--------1-------1--------| this is how it is done
G|-----0----------------0--| the last time
D|--3--------2h3-----3-----|  
A|-------------------------|
E|-------------------------|


Verse 1, 2 and 3

E|-----------------------0--------0-----------------0-----------|
B|--1-----1--1--1-----1-----3-----------1--1-----1-----3-----3--|
G|--0--------------0--------0--0-----0--------0--------0-----0--|
D|--2--2--------------------------------------------------0-----|
A|--3-----------------------3--------------------------2--------|
E|--------------------------------------------------------------|
                                                          play very lightly
E|--------------0--1p0-----------0--1p0--------------0--3----(3)----(3)--|
B|--1--1-----1----------1-----1-----1----1--1-----1-----3----------------|
G|--------0-------------2--2--------2----------0--------0----------------|
D|----------------------2-----------3------------------------------------|
A|-----------------0----0------------------------------------------------|
E|------------------------------------------------------3----------------|

E|--3--3--1--0--1--3-----------0--------0-----------0--5--------5--|
B|--------------------1--1--3-----1--1-----3--1--3-----6-----6-----|
G|--------------------------0--------------------------5--5--------|
D|-----------------------------------------------------3-----------|
A|-----------------0--------3-----------0--------------------------|
E|-----------------------------------------------0-----------------|

E|-----------------0-----0--------------------0--------|
B|--1--1--1-----1-----3-----1--1--1--1-----1-----3--1--|
G|-----------0--------0-----------------0--------2-----|
D|--------------------2--------------------------3-----|
A|--------------------3--------------------------------|
E|-----------------------------------------------------|

E|--------------------------------|
B|--1--0--1-----------1--------1--|
G|--------0-----0-----------0-----|
D|--------2--2-----------2--------|
A|--------3--------3-----------3--|
E|--------------------------------|


Instrumental part

E|--3--1--0--------0-----0-----1--|
B|--------1-----------3-----1--1--|
G|--------0-----0-----0-----2--2--|
D|--------2--2--------0-----2--3--|
A|--------3-----------------0--3--|
E|--------------------3--------1--|
Tap to rate this tab
 
# A B C D E F G H I J K L M N O P Q R S T U V W X Y Z