Song name
# A B C D E F G H I J K L M N O P Q R S T U V W X Y Z

Misc Cartoons - My Little Pony Friendship Is Magic - Helping Twilight Win The Crown tab

Title: Helping Twilight Win The Crown
Artist: Daniel Ingram
Album: From the Soundtrack : Equestria Girls
Tabber: ozziethepossum
Tempo = 112




                                (Hey hey everybody..)
E |--0--0--0--0--0--0--0--0----|--0-----0-----0--0--2--4----|
B |----------------------------|--0-----0-----0--0--0--0----|
G |----------------------------|----------------------------|
D |----------------------------|----------------------------|
A |----------------------------|----------------------------|
E |----------------------------|--0-----------0--------4----|

    (we got something...)     
-----0--0--4--2--2--2--0----|--0-----0-----0--0--2--4----|
-----0--0--0--0--0--0--0----|--0-----0-----0--0--0--0----|
----------------------------|----------------------------|
----------------------------|----------------------------|
----------------------------|----------------------------|
-----0-----4-----------0----|--0--------------------4----|

(as the night is from day)
-----0--0--4--2--0--0-------|
-----0--0--0--0--0----------|
----------------------------|
----------------------------|
----------------------------|
-----0-----4----------------|

( but you look....)
--------0--0--0--0--0-----0-----2-----------0-------|
-----------------------2--0-----0-----------0-------|
----------------------------------------------------|
----------------------------------------------------|
----------------------------------------------------|
--------------------------0-------------------------|

(and you will see..)
--------0-----0-----2-----2-----------0--2----------|
--------0-----0-----4-----4-------------------------|
----------------------------------------------------|
----------------------------------------------------|
----------------------------------------------------|
--------0-------------------------------------------|

(just like you...)
--0-----4-----2--0--0--2----|--0-----4--2--2-----0-------|
--------0-----2--2--2--2----|--0-----0--0--0-----0-------|
----------------------------|----------------------------|
----------------------------|----------------------------|
----------------------------|----------------------------|
--------4--------------2----|--------4-----------0-------|

(instrument break)
--0--0--------0--0----------|
--2--2--------2--2----------|
--1--1--------2--2----------|
----------------------------|
--------------0--0----------|
----------------------------|

(instrument break)
--0-----0-----0--0--2L----------------------2-------|
--0-----0-----0--0--0L----------------------0-------|
--1-----1-------------------------------------------|
--------------------1-----------------------1-------|
----------------------------------------------------|
--0-----------0-------------------------------------|

( hey hey everybody....)
--0-----0-----0--0--2--4----|-----0--0--0--2-----0-------|
--2-----2-----2--2--2--2----|-----0--0--0--0-----0--2----|
--1-----1-----2--2--2--2----|-----1--1--1----------------|
----------------------------|--------------1-------------|
--------------0-------------|----------------------------|
--------------------2-------|-----0-----0----------------|

(magic of friendship...)
--0--0--4-----2--0--0--0----|-----0--0--2--2-----0-------|
--2--2--2-----2--2--2--2----|-----0--0--0--0-----0--2----|
--1--1-----------2--2--2----|-----1--1-------------------|
--------2-------------------|-----------1--1-------------|
--------------------0-------|----------------------------|
--------------2-------------|--------------------0-------|

(thought we were different...)
--0--0--4-----2--0--0-------|--0--0--0--2--2-----0-------|
--2--2--2-----2--2--2--2----|--0--0--0--0--0-----0--2----|
--1--1--1--------2--2--2----|--1--1--1-------------------|
-----------------------2----|-----------1--1-------------|
--------------------0-------|-----------2--2-------------|
--------------2-------------|--0-----0-------------------|

(twilight sparkle helped us..)                (so get)   
--0-----7-----------0-------|--0--0--0--2--2--2--2-------|
--2-----5-----7--5--2--0----|--0--0--0--5--5--5--5-------|
--1-----6-----6--6--2-------|--2--1--1--4--4--4--4-------|
--------6-----7--7----------|----------------------------|
----------------------------|--0-----------2-----2-------|
----------------------------|--------0-------------------|

 (up, get down....)
--0-----2-----0-------------|----------------------------|
--2-----2-----0-----0--0----|--4--4--4--5--5-----5-------|
--2-----2-----1-----1--1----|--4--4--4--6--6-----6--6----|
----------------------------|-----------------------6----|
--0-------------------------|--2--2--2--4--4-----4-------|
--------2-----0--------0----|----------------------------|

(work together helping...)
--0-----0-----2--0--0--0----|--2--2--2--0--0--0--2-------|
--2-----12----0--0--0--0----|--0--0--0--2--2--2--2-------|
--2-------------------------|-----------1--1--1--1-------|
----------------------------|----------------------------|
--0-----------2-------------|--2--2--2-------------------|
--------0-----------0-------|----------------------------|

(up, get down...)
--0-----2-----0-------------|----------------------------|
--------2-----0-----0--0----|--4--4--4--5--5-----5-------|
--6-----------------1--1----|--4--4--4--6--6-----6--6----|
--7-----------6-------------|--4--4--4--------------6----|
----------------------------|--2--2--2--4--4-----4-------|
--------2-------------------|----------------------------|

(work together helping...)
--0-----7-----2--0--0--0----|--2--2--2--0--4--0--0-------|
--2-----9--------0--0--0----|--0--0--0--0--0--0--0-------|
--2-----6-------------------|----------------------------|
----------------------------|--1--1--1-------------------|
--------------2-------------|----------------------------|
--------------------0-------|-----------0--------0-------|

(hey, hey hands up...)
--0-----------0-----------0-----0-----4--------0----|
----------------------------------------------------|
----------------------------------------------------|
----------------------------------------------------|
----------------------------------------------------|
--0-----------------------------------4-------------|

(sending a message...)
--0--0--0-----4-----4-----2-----0-----0-------------|
----------------------------------------------------|
----------------------------------------------------|
----------------------------------------------------|
----------------------------------------------------|
-----0--------------4-----------------0-------------|

(hands wave up...)
--0-----0-----4-----------2-----0-----0-------------|
-----------------------------------------------2----|
----------------------------------------------------|
----------------------------------------------------|
----------------------------------------------------|
--0-----------4-----------------------0-------------|

(we party together...)
--0--0--0-----4-----4-----7-------------------------|
--------------------------------9-------------------|
--------------------------------------9-------------|
----------------------------------------------------|
----------------------------------------------------|
--0-----------4-------------------------------------|

(generous,    honesty)       (laughter, kindness, loyalty)
--0--0--0-----0--0--2-------|--0--0--4--4--2--0--0-------|
----------------------------|----------------------------|
----------------------------|----------------------------|
----------------------------|----------------------------|
----------------------------|----------------------------|
--0-----0--------0----------|--0--------4--------0-------|

(twilight helped us..)                       (so get)
--0--0--0-----0--0--2-------|--0--2--2--0--4--0--2-------|
-----------2----------------|-----------------0--0-------|
----------------------------|----------------------------|
----------------------------|----------------------------|
----------------------------|----------------------------|
--0-----0--------0----------|--0--------0-----0----------|

(up, get down...)
--0-----2-----0-------------|----------------------------|
--2-----2-----0-----0--0----|--4--4--4--5--5-----5-------|
--------------------1--1----|--4--4--4--6--6-----6--6----|
----------------------------|--4--------------------6----|
--0-------------------------|--2--2--2--4--4-----4-------|
--------------0-------------|----------------------------|

(work together helping..)
--0-----7-----2--0--0--0----|--2--2--2--0--0--0--2-------|
--2-----5-----0--0--0--0----|--0--0--0--2--2--2--2-------|
----------------------------|-----------1--1--1--1-------|
--------6-------------------|--1--1--1-------------------|
--0-------------------------|----------------------------|
-----------------0-----0----|----------------------------|

(so get up, get down...)
--0-----2-----0-------------|----------------------------|
--2-----2-----0-----0--0----|--0--4--4--5--5-----5-------|
--2-----2-----------1--1----|-----4--4--6--6-----6--6----|
----------------------------|--1--------------------6----|
----------------------------|-----2--2--4--4-----4-------|
--------------0-------------|--2-------------------------|

(work together helping...)
--0-----7-----2--0--0--0----|--2--2--2--0--4--0--0-------|
--2-----5-----0--0--0--0----|--0--0--0--0--5--0--0-------|
----------------------------|--------------4-------------|
--------6-------------------|--1--1--1-------------------|
--0-------------------------|----------------------------|
-----------------0-----0----|----------------------------|

(i'm going to be myself..)
-----------0--0-------------|-----0--0-----0--0--2-------|
-----0--0--------0--0-------|-----------0----------------|
----------------------------|----------------------------|
----------------------------|----------------------------|
----------------------------|----------------------------|
-----0--------0-----0-------|-----0-----0--------2-------|

(and if we're different..)
-----------0--0-------------|--2--2--2--0--4--0--0-------|
-----0--0--------0--0--0----|----------------------------|
----------------------------|----------------------------|
----------------------------|----------------------------|
----------------------------|----------------------------|
-----0-----0-----0----------|--2-----2-----4-------------|

(if you follow me...)
--7--------------7-----0----|--2--2--2--0--0--2--4--2----|
-----7--5--7--9-------------|----------------------------|
----------------------------|----------------------------|
----------------------------|----------------------------|
----------------------------|----------------------------|
-----------7-----------0----|--2-----2-----0-----0-------|

(we'll stick together and...)                                      (jump)
-----0--0--0--0--0--0-------|--7--7--7--5--4--5--7-------|----------------|
-----------------------0----|----------------------------|-----------7----|
----------------------------|----------------------------|----------------|
----------------------------|----------------------------|----------------|
----------------------------|----------------------------|----------------|
-----0-----0--------0-------|--7--------5--------7-------|-----------7----|

(up make a sound...)
--0-----0-----0-------------|--0--0--4-----2--0--0-------|
-----------2----------------|----------------------------|
----------------------------|----------------------------|
----------------------------|----------------------------|
----------------------------|----------------------------|
----------------------------|--0-----0-----------0-------|

(start now make....)
--0-----0-----2--0--0-------|--0--0--0--2--2-----2-------|
----------------------------|----------------------------|
----------------------------|----------------------------|
----------------------------|----------------------------|
----------------------------|----------------------------|
--0--------------0----------|-----0--------2-------------|

(up make a sound..)
--0-----0-----0-------------|--0--0--4-----2--0--0-------|
-----------2----------------|----------------------------|
----------------------------|----------------------------|
----------------------------|----------------------------|
----------------------------|----------------------------|
--0-------------------------|--0-----0-----------0-------|

(canterlot wondercolts...)
--0--0--0-----2--0--0-------|--4--4--4--2--2-----2-------|
----------------------------|----------------------------|
----------------------------|----------------------------|
----------------------------|----------------------------|
----------------------------|----------------------------|
--0-----------2-----0-------|--0--------2--------2-------|

(up make a sound...)
--------------0-------------|--0--0--4-----2--0--0-------|
--5-----5--2--2-------------|--0--5--5-----2--2--2-------|
--6-----6--2--2-------------|--1--4--4-----3--3--3-------|
--6-----6-------------------|----------------------------|
--4-----4--0--0-------------|----------------------------|
----------------------------|--0-----4-----2-------------|

(start now make...)
--0-----0-----2--0--0-------|--0--0--0-----2-----2-------|
--2-----2-----2--2--2-------|--0--0--0--2--2-----2-------|
--1-----1-----3--2--2-------|--1--1--1--3--3-----3-------|
----------------------------|----------------------------|
----------------------------|----------------------------|
----------------------------|--0-----0--2--------2-------|

(up make a sound...)
--0-----0-----0-------------|--0--0--4-----2--0--0-------|
--2-----2--2--2-------------|--0--5--5-----2--2--2-------|
--1-----1--2--2-------------|--1--4--4-----3--3--3-------|
----------------------------|----------------------------|
-----------0----------------|----------------------------|
----------------------------|--------------2-------------|

(canterlot wondercolts..)
--0--0--0--------0--0-------|--0--4--4--2--2-----2-------|
--2--2--2-----2--2--2-------|--0--5--5--2--2-----2-------|
--1--1--1-----2--2--2-------|--1--4--4--3--3-----3-------|
----------------------------|----------------------------|
----------------------------|----------------------------|
--------------2-------------|-----4----------------------|

(up make a sound...)
--0-----0-----0-------------|--0--0--4-----2--0--0-------|
--2-----2--2--2-------------|--5--5--5-----2--2--2-------|
--1-----1--2--2-------------|--4--4--4-----3--2--3-------|
----------------------------|----------------------------|
-----------0----------------|----------------------------|
----------------------------|--0-----4-------------------|

(start now make..)
--0-----0--------0--0-------|--0--0--0-----2-----2-------|
--2-----2-----2--2--2-------|--0--0--0--2--2-----2-------|
--1-----1-----2--2--2-------|--1--1--1--2--3-----3-------|
----------------------------|----------------------------|
----------------------------|----------------------------|
--------------2-------------|--0-----0--2----------------|

(up make a sound..)
--0-----0-----0-------------|--0--0--4-----2--0--0-------|
--2-----2--2--2-------------|--0--5--5-----2--2--2-------|
--1-----1--2--2-------------|--1--4--4-----3--3--3-------|
----------------------------|----------------------------|
-----------0----------------|----------------------------|
----------------------------|--------4-------------------|

(start now make...)
--0--0--0--------0--0-------|--0--4--4--2--2-------------|
--2--2--2-----2--2--2-------|--0--5--5--2--2-------------|
--1--1--1-----2--2--2-------|-----4--4--3--3-------------|
----------------------------|----------------------------|
----------------------------|----------------------------|
--------------2-------------|--4-----4-------------------|


--0--0--------0--------0----|
--2--2--------2--5-----0----|
--1--1--------2--------1----|
-----------------7----------|
-----------------4----------|
----------------------------|
Tap to rate this tab
# A B C D E F G H I J K L M N O P Q R S T U V W X Y Z