Song name
# A B C D E F G H I J K L M N O P Q R S T U V W X Y Z

Misc Children - Are You Sleeping Brother John tab

-------------------------------------------------------------------------------
			     Are You Sleeping Brother John?
-------------------------------------------------------------------------------
Tabbed by: zosoperrylennon a.k.a Manuel
Email: antaressatevis@gmail.com

Tuning: e b g d a e

e|----3-----5-----7-----3---|-----3-----5-----7-----3-------------------|
B|--------------------------|-------------------------------------------|
G|--------------------------|-------------------------------------------|
D|--------------------------|-------------------------------------------|
A|--------------------------|-------------------------------------------|
E|--------------------------|-------------------------------------------|

e|----7-----8-----10---|-----7-----8-----10-----------------------------|
B|---------------------|------------------------------------------------|
G|---------------------|------------------------------------------------|
D|---------------------|------------------------------------------------|
A|---------------------|------------------------------------------------|
E|---------------------|------------------------------------------------|

e|----10--12--10----8---7---3---|---10--12--10---8---7---3--------------|
B|------------------------------|---------------------------------------|
G|------------------------------|---------------------------------------|
D|------------------------------|---------------------------------------|
A|------------------------------|---------------------------------------|
E|------------------------------|---------------------------------------|

e|------------3--------3-------|---3--------3---------------------------|
B|-----------------------------|----------------------------------------|
G|----------------3------------|-------3--------------------------------|
D|-----------------------------|----------------------------------------|
A|-----------------------------|----------------------------------------|
E|-----------------------------|----------------------------------------|

e|------------------------------|---------------------------------------|
B|------------------------------|---------------------------------------|
G|-----0-----2-----4-----0------|-----0-----2-----4-----0---------------|
D|------------------------------|---------------------------------------|
A|------------------------------|---------------------------------------|
E|------------------------------|---------------------------------------|

e|----------------------|-----------------------------------------------|
B|------0-----1-----3---|-------0-----1-----3---------------------------|
G|----------------------|-----------------------------------------------|
D|----------------------|-----------------------------------------------|
A|----------------------|-----------------------------------------------|
E|----------------------|-----------------------------------------------|

e|---------------------------|------------------------------------------|
B|---------------------------|------------------------------------------|
G|---------------------------|------------------------------------------|
D|-----4--6--4---------------|------4--6--4-----------------------------|
A|---------------7---6-------|----------------7---6---------------------|
E|-----------------------7---|------------------------7-----------------|            

e|-----------------------------|----------------------------------------|
B|-----------------------------|----------------------------------------|
G|-----------------------------|----------------------------------------|
D|--------6-------6------------|--------6-------6-----------------------|
A|-----------------------------|----------------------------------------|
E|------------0----------------|------------0---------------------------|
Tap to rate this tab
# A B C D E F G H I J K L M N O P Q R S T U V W X Y Z