Song name
# A B C D E F G H I J K L M N O P Q R S T U V W X Y Z

Misc Children - The Chicken Dance tab

Tabbed By: Mac (mask123)

email: mizuoni1339@yahoo.com

e|---------------------|
B|---------------------|
G|-----6-6--8-8--------|  X2
D|---------------6-6--8|
A|---------------------|
E|---------------------|


e|---------------|
B|---------4-6-5-|
G|---6--8--------|  X2
D|---------------|
A|---------------|
E|---------------|

Play this however many times you like!

P.S. REALLY easy song, try switching up which strings to use and different frets.
Tap to rate this tab
# A B C D E F G H I J K L M N O P Q R S T U V W X Y Z