Song name
# A B C D E F G H I J K L M N O P Q R S T U V W X Y Z

Misc Christmas - Jingle Bells tab

This is based on a rock version of We Wish You A Merry Christmas and is a tiny little 
different. Here is a link to a page with the song on it. Go onto the page and choose Full 
Preview 1.
http://www.premiumbeat.com/royalty_free_music/byPiece.php?id=2416

e|---3-5-3-2-0---0-5-7-5-3-2--------7-8-7-5-3-0-------0-5-2/3-|
B|-3--------------------------3---3---------------3-3---------|
G|------------------------------------------------------------|
D|------------------------------------------------------------|
A|------------------------------------------------------------|
E|------------------------------------------------------------|

e|---3-5-3-2-0---0-5-7-5-3-2--------7-8-7-5-3-0-------0-5-2/3-|
B|-3--------------------------3---3---------------3-3---------|
G|------------------------------------------------------------|
D|------------------------------------------------------------|
A|------------------------------------------------------------|
E|------------------------------------------------------------|

e|---3--3-3-2---2-3-2-0-----5-7-5-3-10-------0-5-2/3---3~|
B|-3--------------------3----------------3-3-------------|
G|-------------------------------------------------------|
D|-------------------------------------------------------|
A|-------------------------------------------------------|
E|-------------------------------------------------------|

e|---3-5-3-2-0---0-5-7-5-3-2--------7-8-7-5-3-0-------0-5-2/3-|
B|-3--------------------------3---3---------------3-3---------|
G|------------------------------------------------------------|
D|------------------------------------------------------------|
A|------------------------------------------------------------|
E|------------------------------------------------------------|

e|---3-5-3-2-0---0-5-7-5-3-2--------7-8-7-5-3-0-------0-5-2/3-|
B|-3--------------------------3---3---------------3-3---------|
G|------------------------------------------------------------|
D|------------------------------------------------------------|
A|------------------------------------------------------------|
E|------------------------------------------------------------|

e|---3--3-3-2---2-3-2-0-----5-7-5-3-10-------0-5-2/3---3-|
B|-3--------------------3----------------3-3-------------|
G|-------------------------------------------------------|
D|-------------------------------------------------------|
A|-------------------------------------------------------|
E|-------------------------------------------------------|

e|---3--3-3-2---2-3-2-0-----5-7-5-3-10-------0-5-2/3---3~|
B|-3--------------------3----------------3-3-------------|
G|-------------------------------------------------------|
D|-------------------------------------------------------|
A|-------------------------------------------------------|
E|-------------------------------------------------------|

Please rate!
Tap to rate this tab
# A B C D E F G H I J K L M N O P Q R S T U V W X Y Z