Song name
# A B C D E F G H I J K L M N O P Q R S T U V W X Y Z

Misc Christmas - Joy To The World tab

e|-----------------------------------------0--0---1-------------------|
B|-----1--0--------------------0--2--2--------------------------------|
G|------------2--0----------------------------------------------------|
D|------------------3--2--0-------------------------------------------|
A|----------------------------3---------------------------------------|
E|--------------------------------------------------------------------|

e|--------------------------------------------------------------------|
B|--1--1--0----------------------1--1--0------------------------------|
G|-------------2--0--0---------------------2--0--0--------------------|
D|------------------------3---2--------------------------3--2---------|
A|--------------------------------------------------------------------|
E|--------------------------------------------------------------------|

e|--------------------------------------------------------------------|
B|---------------------------------------------------------1----------|
G|---------------------0---------------------------------------2---0--|
D|--2--2--2--2--3--------3--2--0------0--0--2--3---0------------------|
A|-----------------------------------------------------3--------------|
E|--------------------------------------------------------------------|

e|-----------------------------0--------------------------------------|
B|-----------------------------1--------------------------------------|
G|-----------------------------0--------------------------------------|
D|--3--2----------3---2--0--2-----------------------------------------|
A|-----------------------------3--------------------------------------|
E|--------------------------------------------------------------------|
Tap to rate this tab
 
# A B C D E F G H I J K L M N O P Q R S T U V W X Y Z