Song name
# A B C D E F G H I J K L M N O P Q R S T U V W X Y Z

Misc Christmas - O Little Town Of Bethlehem tab

Tabbed by: Arthur Richards, aged 10
Email: ArthurRichards01@aol.com

Please send comments, bad or good, to the above email address!
And please rate...I'm only 10 so don't be harsh!


e|---------------------5---------------------
B|-2-7-7-7-5-7-5-7-8---7-8-7---5-7-----------
G|-2-7-7-7-7-7-7-7-------8---7-----7---------
D|-2-------------------------------0---------
A|-0---------------------------0-------------
E|-------------------------------------------

e|-------------------------------------------
B|-----10-12-10------------------------------
G|7-11--9-------12-11-9-7-9-11-12-14---------
D|---------------------0-0-0--0--0-----------
A|-------------------------------------------
E|-------------------------------------------

Thats it, I hope you like it!
Tap to rate this tab
# A B C D E F G H I J K L M N O P Q R S T U V W X Y Z