Song name
# A B C D E F G H I J K L M N O P Q R S T U V W X Y Z

Misc Soundtrack - A-team Theme tab

=============================================================================
                            The A-Team Theme Song
=============================================================================

        Tabbed by: weirdoises
        Email: veryweirdnoises@yahoo.com
        
        Tuning: Standart


e|-------------------------------------------------------------------------|
B|-------------------------------------------------------------------------|
G|-------------------------------------------------------------------------|
D|-------------------------------------------------------------------------|
A|--7----7---7--------------------7--7------9--7------5---3-2-0---2--------|
E|---------7-------5---7---0------------7----------------------------------|



e|-------------------------------------------------------------------------|
B|-------------------------------------------------------------------------|
G|-------------------------------------------------------------------------|
D|-------------------------------------------------------------------------|
A|--7----7---7-------------------------5-4---0--5-4---5--4--5-7----7/------|
E|---------7--------9--7--5--7--5------------------------------------------|

Have fun.
Tap to rate this tab
# A B C D E F G H I J K L M N O P Q R S T U V W X Y Z