Song name
# A B C D E F G H I J K L M N O P Q R S T U V W X Y Z

Misc Soundtrack - Godfather tab

Tabbed by Boro777

Intro
|----------------------------------------------------------------|
|-15---14-15-16--15-15---------15---14-15-16--15-15--------------|
|----------------------15---------------------------14-----------|
|----------------------------------------------------------------|
|----------------------------------------------------------------|
|----------------------------------------------------------------|
                         br        br      br     br     
E: ------------------------/\--------/\-------------/\-------------|
B: -15---14-15-18--15-14-15-(15)---14-(14)---/\---14-(14)----------|
G: ----------------------------------------14-(14)--------14-------|
D: ----------------------------------------------------------------|
A: ----------------------------------------------------------------|
E: ----------------------------------------------------------------|

Main Part
E: ----12-15-14-12-15-12-14-12---------  ----12-15-14-12-15-12-14-12--------|
B: ---12-----------------------13-15-12  ---12---------------------12-11-10-|
G: ------------------------------------  -----------------------------------|
D: ------------------------------------  -----------------------------------|
A: ------------------------------------  -----------------------------------|
E: ------------------------------------  -----------------------------------|

E: -------12-14-------11-12--------------------------------------|
B: -10-14-------10-14--------------15-13-12-15-12-13-12----------|
G: -------------------------9-12-------------------------11-12-9-|
D: --------------------------------------------------------------|
A: --------------------------------------------------------------|
E: --------------------------------------------------------------|
Tap to rate this tab
# A B C D E F G H I J K L M N O P Q R S T U V W X Y Z