Song name
# A B C D E F G H I J K L M N O P Q R S T U V W X Y Z

Misc Soundtrack - Pirates Of The Carribbean - Hes A Pirate tab

Help us improve GuitareTab! Take a short survey!
Intro
e----------------------------------------------------|
B----------------------------------------------------|
G----------------------------------------------------|
D----------------------------------------------------|
A-5---5-5--5-5--5-5-5---5---5-5--5-5--5-5-5----------|
E----------------------------------------------------|

e--------------------------------------------------|
B--------------------------------------------------|
G---------------------------------------------3----|
D--------------------------------------------------|
A-5---5-5--5-5--5-5-5---5---5-5--5-5--5-5-5---5----|
E--------------------------------------------------|

First Part

e--------------------------------------------------|
B-------------5-6-6---6-8-5-5----------------------|
G---5-7-7---7-------------------7-5-5-7------------|
D-7------------------------------------------------|
A--------------------------------------------------|
E--------------------------------------------------|

e--------------------------------------------------|
B-------------5-6-6---6-8-5-5----------------------|
G---5-7-7---7-------------------7-5-7--------------|
D-7------------------------------------------------|
A--------------------------------------------------|
E--------------------------------------------------|


Second Part

e-----------------------5-6-6---5---5--------------|
B-------------6-8-8---8-----------8----------------|
G---5-7-7---7-------------------------7------------|
D-7------------------------------------------------|
A--------------------------------------------------|
E--------------------------------------------------|

e----------5-6-------------------------------------|
B---6-8-8------------6-5-5-------------------------|
G-7------------7---7---------7-5-5-7---------------|
D--------------------------------------------------|
A--------------------------------------------------|
E--------------------------------------------------|


e--------------5/1-1---------------|--------------------------------|
b----5-6-6-8--------3----11--------|-10-10-10-10-h11----------------|
g--7-----------------2-----10------|-10-10-10-10-10-----------------|
d----------------------------12-11~|--------------------------------|
a----------------------------------|--------------------------------|
e----------------------------------|--------------------------------|


e------------------------------------------|
b--8-8-8-8h10----10-10-10h11----8--6--5--6-|
g--9-9-9-9-9-----10-10-10-10----9--7--5--7-|
d------------------------------------------|
a------------------------------------------|
e------------------------------------------|

e--------------------------------------------------|
B--------8-10-8---------8-10-8---------------------|
G-7-9-10--------10-9-10----------------------------|
D--------------------------------------------------|
A--------------------------------------------------|
E--------------------------------------------------|

e--------------------------------------------------|
B----8-10-8----------------------------------------|
G-10--------10-9-10-9-7-9-5-7----------------------|
D--------------------------------------------------|
A--------------------------------------------------|
E--------------------------------------------------|

e------------------------------------------------------------------|
b-------10------------------------10-11----------------------------|
g-10-12----12--10---------9-10-12----------12-10-12-9-7-9-5~-------|
d------------------12--12---------------12-------------------------|
a------------------------------------------------------------------|
e------------------------------------------------------------------|


e--------------------------------------------------|
B-------------8----8-10-8--------------------------|
G-7-9-10-9-10---10--------10-7---------------------|
D--------------------------------------------------|
A--------------------------------------------------|
E--------------------------------------------------|

e--------------------------------------------------|
B--------8^-10-8--------8--------------------------|
G-7-9-10---------7-9-10---9-7-9-5------------------|
D--------------------------------------------------|
A--------------------------------------------------|
E--------------------------------------------------|

e--------------------------------------------------|
B-10-11--------------------------------------------|
G--7-10-14-14-14-14\12---12-10-9-10-9-7------------|
D-------15-15-15-15------12-10-7--7-7-7------------|
A--------------------------------------------------|
E--------------------------------------------------|

e--------------------------------------------------|
B-10-11--------------------------------------------|
G--7-10-14-14-14-14\12---12-10-9-10-9-7------------|
D-------15-15-15-15------12-10-7--7-7-7------------|
A--------------------------------------------------|
E--------------------------------------------------|

e-------------------------------------------------------|
B-------10-------11--------10-10-10-10\8----8-6-5-6-5---|
G-----10-------10-------10-10-10-10-10\8----9-7-7-----7-|
D---12-------12-------12--------------------------------|
A-12-------12-------12----------------------------------|
E-------------------------------------------------------|

e-------------------------------------------------------|
B-------10-------11--------10-10-10-10\8----8-6-5-6-5---|
G-----10-------10-------10-10-10-10-10\8----9-7-7-----7-|
D---12-------12-------12--------------------------------|
A-12-------12-------12----------------------------------|
E-------------------------------------------------------|
Related for Pirates Of The Carribbean - Hes A Pirate tab