Song name
# A B C D E F G H I J K L M N O P Q R S T U V W X Y Z

Misc Soundtrack - Power Rangers In Sapce Theme tab

Here it goes Power Rangers Zeo Theme, the chorus is just like in Go Go Power Rangers,
with a little upgrade: A second lead doing 3rds.

The Tapping for the intro is what I got listening one low quality version after another
and it kinda fitted, but then I came across a decent quality instrumental version and I
realized there are actually more tones involved, but it's beyond my reach, hopefully you 
can figure it out using my Tab as base =D.


Ok let's hit it:


Go Zeo

Go Go Power Rangers!

Tapping over Em C D G Em C G B

e|-------------------------------------------------------------------------------------|
B|-------------------------------------------------------------------------------------|
G|-16-12--9-12-16-12--9-12-16-12--9-12-16-12--9-12-17-12--9-12-17-12--9-12-17-12--9-17-|
D|-------------------------------------------------------------------------------------|
A|-------------------------------------------------------------------------------------|
E|-------------------------------------------------------------------------------------|

e|-------------------------------------------------------------------------------------|
B|-------------------------------------------------------------------------------------|
G|-19-14-11-14-19-14-11-14-19-14-11-14-19-14-11-14-19-16-12-16-19-16-12-16-19-16-12-19-|
D|-------------------------------------------------------------------------------------|
A|-------------------------------------------------------------------------------------|
E|-------------------------------------------------------------------------------------|

e|-------------------------------------------------------------------------------------|
B|-------------------------------------------------------------------------------------|
G|-16-12--9-12-16-12--9-12-16-12--9-12-16-12--9-12-17-12--9-12-17-12--9-12-17-12--9-17-|
D|-------------------------------------------------------------------------------------|
A|-------------------------------------------------------------------------------------|
E|-------------------------------------------------------------------------------------|

e|-------------------------------------------------------------------------------------|
B|----------------------------------------------19-16-12-16-19-16-12-16-19-16-12-16-19-|
G|-19-16-12-16-19-16-12-16-19-16-12-16-19-14-11----------------------------------------|
D|-------------------------------------------------------------------------------------|
A|-------------------------------------------------------------------------------------|
E|-------------------------------------------------------------------------------------|

  E
Stronger than before!

C  D
Go Zeo!

  E
Powered up for more!

C  D
Go Zeo!

 F
Rangers at the core!

F  G  A  B
Power Rangers


e|---------------------------------------------|
B|---------------------------------------------|
G|---------------------------------------------|
D|---------------------------------------------| x2
A|-7-7-7-7-----7-7-7-7-----7-7-7-7-----7-7-7-7-|
E|-7-7-7-7-----7-7-7-7-----7-7-7-7-----7-7-7-7-|

 E
Higher they can soar
C  D
Go Zeo!

 E
Fired up for more

C  D
Go Zeo!

F
Even up the score

F G A B
Zeo! Zeo!

Go Go Power Rangers                                                | Go go..
 /
 | e|-------------------------------|------------------------------|----|
 | B|-------------------------------|------------------------------|----|
 | G|----------16---14--------------|----------16---14-------------|-14-|
 | D|-----14-------------16---17----|-----14-------------17---16---|----|
 | A|-------------------------------|------------------------------|----|
 | E|-------------------------------|------------------------------|----|
<                                                                   x2
 | e|-------------------------------|------------------------------|----|
 | B|----------15---13--------------|----------15---13-------------|-13-|
 | G|-----12-------------14---16----|-----12-------------16---14---|----|
 | D|-------------------------------|------------------------------|----|
 | A|-------------------------------|------------------------------|----|
 | E|-------------------------------|------------------------------|----|
 \

 F
... Power Rangers (Zeo)

F G A B
Power Rangers


Crazy Tapping on Em and end.


Power Rangers FTW
Tap to rate this tab
 
# A B C D E F G H I J K L M N O P Q R S T U V W X Y Z