Song name
# A B C D E F G H I J K L M N O P Q R S T U V W X Y Z

Misc Soundtrack - Mission Impossible Theme tab

Hey guys I'm Chris, I'm 14 and this is my first Tab so go easy on me. If you wanna get 
touch with me my yahoo is chris_hicks10@yahoo.com. So I guess I'll get this tab done yall.

palm mute = x
hammer on = h

|-------------|
|-------------|
|-------------|
|--4-4-4-4-4--|
|--2-2-2-2-2--|
|-------------|
     x   x


|-------------|
|-------------|
|-------------|
|--5-5-5-5-5--|
|--3-3-3-3-3--|
|-------------|
     x   x


|-------------|
|-------------|
|-------------|
|--6-6-6-6-6--|
|--4-4-4-4-4--|
|-------------|
     x   x


|-------------|
|-------------|
|-------------|
|--5-5-5-5-5--|
|--3-3-3-3-3--|
|-------------|
     x   x


|------------------------------|
|9-7-----7-5-----5-3-----------|
|----8-------6-------4---------|
|------------------------------|
|-------------------------3h5--|
|------------------------------|


Thats all I got so far.
My cousin taught it to me.
Hope you can enjoy playing it.
But if you get in contact with me I don't wanna know about you playing this and running 
the house in a thong.
Thanks.
Tap to rate this tab
 
# A B C D E F G H I J K L M N O P Q R S T U V W X Y Z