Guitaretab - guitar tabs
Song name
# A B C D E F G H I J K L M N O P Q R S T U V W X Y Z

Misc Soundtrack - Indiana Jones Theme tab

------------------------------------------------------------------------
                        indiana jones theme song
-------------------------------------------------------------------------
TaBed by-metalmetalhead
written by- indiana jones

tuning=standerd

main riff
e-----------------------------------------------------------------------|
B-----------------------------------------------------------------------|
G------------------------10---------------------------------------------|
D-----------10-----------------------7--8--10--12--14-------------------|
A--7--8--10-----5--7--8-----7--8--10------------------------------------|
E-----------------------------------------------------------------------|

E-------------------------------------------------------------------------|
B-------------------------------------------------------------------------|
G-------------------------------------------------------------------------|
D----------10----12--14--15----12--14--12--12--14--12--12--14--12---------|
A-7--8--10----------------------------------------------------------------|
E-------------------------------------------------------------------------|

I dont think a few of these parts are correct i couldnt figure them out
but they sound good. If you know how this part goes id love to make this tab 100% correct

e---------------------------------------------------------------------|
B---------------------------------------------------------------------|
G------------------------9------------------------9-------------------|
D--------------7--9--10------------------7--9--10---------------------|
A-7--10--8--7---------------7--10--8--7-------------------------------|
E---------------------------------------------------------------------|
[ Tab from: http://www.guitaretab.com/m/misc-soundtrack/27060.html ]
e---------------------------------------------------------------------|
B---------------------------------------------------------------------|
G---------------------------------------------------------------------|
D----------------------12-----------12---------12------10-------------|
A-7--10--8--7--8--10-------10-9-10-----10-9-10----10-9----------------|
E---------------------------------------------------------------------|

e--------------------------------------------------------------------------|
B--------------------------------------------------------------------------|
G-------------------------9------------------------------------------------|
D---------------7--9--10---------------------------------------------------|
A--7--10--8--7---------------7--10--8--7--10--8--7--5--7--10--8--7--8--10--|
E--------------------------------------------------------------------------|

e---------------------------------------------------------------------|
B---------------------------------------------------------------------|
G---------------------------------------------------------------------|
D-12---------12----------12------10--12---------12---------12------10-|
A----10-9-10----10-9-10-----10-9--------10-9-10----10-9-10----10-9----|
E---------------------------------------------------------------------|

e--------------------------------------------------------------|
B--------------------------------------------------------------|
G--------------------------------------------------------------|
D-12---------12---------12------10-------10-------10-----9-----|
A----10-9-10----10-9-10----10-9----8-7-8----8-7-8----8-7-------|
E--------------------------------------------------------------|

e--------------------------------------------------------------|
B--------------------------------------------------------------|
G-----------------------------------------10-9--------9-8------|
D---9--7-9-10---7-9--7-9-10----7--9-10-12------7-9-10-----8----|
A-5-----------5--------------5---------------------------------|
E--------------------------------------------------------------|

great song one of the frist I learned by ear I think I did alright

any corrections you know of email me at metal_head132@yahoo.com

thanks

| /  slide up
| \  slide down
| h  hammer-on
| p  pull-off
| ~  vibrato
| +  harmonic
| x  Mute note
Related for Indiana Jones Theme tab
Advertisement will be closed in 10 seconds