Misc Soundtrack - The Mask Of Zorro Them tab

Tabbed by:Iko;)
Email:

Tuning:

e|----------------------------------------|
B|-8-10-12-8-10-12-8-10-12-12-8-13-12-10--|
G|----------------------------------------|
D|----------------------------------------|
A|----------------------------------------|
E|----------------------------------------|

e|------------------------------------|
B|-7-8-10-7-8-10-7-8-10-10-8-12-10-8--|
G|------------------------------------|
D|------------------------------------|
A|------------------------------------|
E|------------------------------------|

e|--------------------------------------------|
B|-12-13-15-12-13-15-12-13-15-13-12----12-13--|
G|----------------------------------14--------|
D|--------------------------------------------|
A|--------------------------------------------|
E|--------------------------------------------|

e|--------------------------------------|
B|--10-13-12-12-8-10-12---10-10-7-8-10--|
G|--------------------------------------|
D|--------------------------------------|
A|--------------------------------------|
E|--------------------------------------|

e|--------------------------------------|
B|-8-7-5-7-5-4-5------------------------|
G|--------------------------------------|
D|--------------------------------------|
A|--------------------------------------|
E|--------------------------------------|
Tap to rate this tab
 
# A B C D E F G H I J K L M N O P Q R S T U V W X Y Z