Misc Soundtrack - Kill Bill 2 - The Demise Of Barbara And The Return Of Joe tab

e|---------------------------------------------------------------------------|
B|---------------------------------------------------------------------------|
G|---------------------------------------------0-----------------------------|
D|-------2-----------------2-----------------2-------------------------------|
A|-3-3-5---0---------3-3-5---0---------3-3-5---------------------------------|
E|---------------------------------------------------------------------------|

e|-------------------------------------------------------------------|
B|----------------------------0--------------------------------------|
G|------------------------------2-0----------------------------------|
D|-------2-----------------2--------2-2-0---0-0----------------------| x2
A|-3-3-5---0---------3-3-5----------------3-----0--------------------|
E|-------------------------------------------------------------------|

Song from the ending of Kill Bill Vol. 2 

The best way to play it as powerful as the original
Tap to rate this tab
 
# A B C D E F G H I J K L M N O P Q R S T U V W X Y Z