Song name
# A B C D E F G H I J K L M N O P Q R S T U V W X Y Z

Misc Soundtrack - Death March Theme tab

Death March Theme
a.k.a. Darth Vader Theme
Star Wars Soundtrack
(misc. soundtrack)

|-------------------|------------------------|
|-------------------|------------------------|
|-------------------|------------------------|
|-------------------|1-1-1-2-----------------|
|--------3------3---|--------3-0---3------3--|
|4-4-4-0---4--0---4-|------------0---4--0---4|

|1---1-1-----------|--------------|-------------|
|--------3-2-------|--------------|-------------|
|--1---------3-2-3-|0-4-3-2-------|-------------|
|------------------|--------3-2-3-|0-4-3-2------|
|------------------|--------------|--------3-2-3|
|------------------|--------------|-------------|

|----------------|
|----------------|
|----------------|
|----------------|
|0-4---3------3--|
|----0---4--0---4|


I know this tab sounds kind of wierd, like in a wrong key or something....
change it to what you want it to be if you don't like what you hear

Comments? my e-mail is RCT2head@hotmail.com
Tap to rate this tab
# A B C D E F G H I J K L M N O P Q R S T U V W X Y Z