Song name
# A B C D E F G H I J K L M N O P Q R S T U V W X Y Z

Misc Television - Mickey Mouse - Club House tab

                         Mickey Mouse Cluhouse!

e-----------------------------------|
b-----------------------------------|
g--------7-5--9-7--7-7-7-5----------|    x2
d--5-5-9------------------9-7-5-----|
a-----------------------------------|
e-----------------------------------|

e------------------------------|
b------------------------------|
g------------------------------|
d--------5--7---9-7-5----------|    x2
a--5-9-7---9----------7-5~-----|
e------------------------------|

e------------------------------|
b------------------------------|
g---7-7-7----------------------|
d---7-7-7----------------------|   x1
a---5-5-5----------------------|
e------------------------------|
Tap to rate this tab
# A B C D E F G H I J K L M N O P Q R S T U V W X Y Z