Song name
# A B C D E F G H I J K L M N O P Q R S T U V W X Y Z

Misc Television - Munsters tab

Help us improve GuitareTab! Take a short survey!
Band- Rob Zombie
Song- Munsters

------------------------------------------------------------------------------|
------------------------------------------------------------------------------|
------------------------------------------------------------------------------|
----------------------------------------------------------------7-------------|
-------6--7--------6--7--------6--7--------6--7-----------6--7-----8--7--5----|
-5--5--------5--5--------5--5--------5--5--------5--8--5----------------------|


------------------------------------------------------------------------------|
------------------------------------------------------------------------------|
------------------------------------------------------------------------------|
--------------------------------------------7---------------------------------|
-7--5--------------------------------6--7------8--7--5--7--5--7---------------|
-------8--10-8--7--5--3--5--5--8--5------------------------------0--0--0--2---|


------------------------------------------------------------------------------|
------------------------------------------------------------------------------|
------------------------------------------------------------------------------|
------------------------------------------------------------------------------|
------------------------------------------------------------------------------|
-4--5-------------------------------------------------------------------------|
Related for Munsters tab