Song name
# A B C D E F G H I J K L M N O P Q R S T U V W X Y Z

Misc Television - Sigh No More tab

From: missy@u.washington.edu (Hostess (c) Sponge Cake)
Subject: TAB: Sigh No More, Ladies (from "Much Ado About Nothing")

This is a work in progress, so if you can alter/fix it at all, much thanks!

CAPO UP TWO FRETS. Capoed fret is now considered the "0" fret.


Sigh No More, Ladies
(from the movie "Much Ado About Nothing")

  D
e|2|-----------------------2-------------------|
B|3|-------------3--------------3--------------|
G|2|--------2---------2--------------2---------|
D|0|---0----------------------------------0----|
A|0|-------------------------------------------|
E|0|-------------------------------------------|
      sigh            no   more      la - dies,

  A
e|0|-------------------------------------------|
B|2|-----------------------2-------------------|
G|2|-------------2--------------2--------------|
D|2|--------2---------2--------------2---------|
A|0|---0----------------------------------0----|
E|0|-------------------------------------------|
      sigh           no   more,

 
e|0|-------------------------------------------|
B|0|-----------------------0-------------------|
G|0|-------------0--------------0--------------|
D|0|--------0---------0--------------0---------|
A|2|---2----------------------------------2----|
E|0|-------------------------------------------|
      men                 were de - cei - vers


e|0|-------------------------------------------|
B|0|-------------------------------------------|
G|0|-----------------------0-------------------|
D|2|-------------2--------------2--------------|
A|0|--------0---------0--------------0---------|
E|0|---0----------------------------------0----|
      ev         -        er   one  foot  in


e|0|-------------------------------------------|
B|0|-------------------------------------------|
G|0|-----------------------0-------------------|
D|0|-------------0--------------0--------------|
A|2|--------2---------2--------------2---------|
E|3|---3----------------------------------3----|
      sea                                and

                                A
e|0|-----------------------|  e|0|---------------------------|
B|0|-----------------------|  B|2|---------------------------|
G|0|-------------0---------|  G|2|--------------2------------|
D|0|--------0---------0----|  D|2|---------2---------2-------|
A|2|---2-------------------|  A|0|----0----------------------|
E|0|-----------------------|  E|0|---------------------------|
      one   on  shore                          to - oo


e|0|-------------------------------------------|
B|0|-------------------------------------------|
G|0|-----------------------0-------------------|
D|2|-------------2--------------2--------------|
A|0|--------0---------0--------------0---------|
E|0|---0----------------------------------0----|
      one      thing               con - stant


e|0|-----------------------|   e|0|-----------------------|
B|0|-----------------------|   B|2|------------------2----|
G|0|------------------0----|   G|2|-------------2---------|
D|2|-------------2---------|   D|2|--------2--------------|
A|0|--------0--------------|   A|0|---0-------------------|
E|0|---0-------------------|   E|0|-----------------------|
      ne        -      -             ver  then  sigh  not


REPEAT ABOVE.

then sigh not so
but let them go
and be you blithe and bonny
converting all
your sounds of woe
into hey, nonny, nonny

VERSE TWO:
sing no more ditties, sing no more
of dumps, so dull and heavy
the fraud of man was ever so
since summer first was leafy
so sigh not so, but let them go
and be you blithe and bonny
converting all your sounds of woe
into hey, nonny, nonny.
Tap to rate this tab
 
# A B C D E F G H I J K L M N O P Q R S T U V W X Y Z