Song name
# A B C D E F G H I J K L M N O P Q R S T U V W X Y Z

Misc Television - Post Man Pat tab

Date: Sat, 28 Feb 1998 18:22:18 +0000 ()
  From: Andrew Morgan 
  To: OLGA 
  Subject: TAB : Post Man Pat (Theme Tune) (fwd)
  
  
  
  Song Name : Post Man Pat (Theme Tune)
  Transcriber : Andrew Morgan
  
  The following is looped constantly :-
  
  --------------------------------------------------------------------
  -----1---1---1-------1---1---1-------1---1---1----------------------
  -----0---0---0-------0---0---0-------2---2---2--------2---2---4---4-
  ------------------------------------------------------3---3---5---5-
  ---3--------3--0-2-3-------3---3-2-0-------0------------------------
  -------3---------------3---------------0-------5--3--1--1---3---3---
  
  ------------------------------------------------|
  ----------------------------------1---1---1-----|
  --2---2---4---4---2---2---4---4---0---0---0-----|
  --3---3---5---5---3---3---5---5-----------------|
  ---------------------------------3------3---0-2-|
  1---1---3---3---1---1---3---3-------3-----------|
  
  Words
  
 C
 Post man pat
 C
 Post man pat
  			Am
  and his black and white cat
  F		G
  Early in the morning 
  F		G
  Just as day is dawning
  F		G		C
  Post man pats a very happy man
Tap to rate this tab
# A B C D E F G H I J K L M N O P Q R S T U V W X Y Z