Song name
# A B C D E F G H I J K L M N O P Q R S T U V W X Y Z

Misc Television - Buffy The Vampire Slayer Theme tab

this is the buffy theme. it is realy easy to 
play and it isnt hard to learn. this tab 
has been changed a little bit to make it 
even eisier to play but it still souns awesome...
please enjoy and leave comments...

this song should have two guitars but 
i just play it with one so, so can you ..lol...
 

    intro (clean)
e]------------]
B]------------]
G]------------]
D]-7---9-10--5]
A]------------]
E]------------]


after the intro play a powerslide by 
scaping your pick(plecktrum) across 
thee 6 and 5th strings.

e]-------------------------------------------------------------------------]
B]-------------------------------------------------------------------------]
G]-------------------------------------------------------------------------]
D]-7-7-77-7-7-77-7-99-10-5-5-55-5-5-55-5-5-55-5-5-55-5-5-77-10-5-5-55-5-55-]
A]-5-5-55-5-5-55-5-77-8--3-3-33-3-3-33-3-3-33-3-3-33-3-3-55-7--3-3-33-3-33-]
E]-------------------------------------------------------------------------]


then comes a kind of solo type thing 


e]---------------------]
B]-10---12--10--8--8-7-]
G]---------------------]
D]---------------------]
A]---------------------]
E]---------------------]

e]-7-7-77-7-7-7-10h12-7-7-77-7-7-7-10h12]
B]--------------------------------------]
G]--------------------------------------]
D]--------------------------------------]
A]--------------------------------------]
E]--------------------------------------]

e]-5-5-55-5-5-5-7h9-5-5-55-5-5-5-55-6-6-66-6-6-66-6------------]
B]-------------------------------------------------------------]
G]-------------------------------------------------------------]
D]-------------------------------------------------------------]
A]-----------------------------------------------------9--9--9-]
E]-----------------------------------------------------7--7--7-]

Tap to rate this tab
 
# A B C D E F G H I J K L M N O P Q R S T U V W X Y Z