Song name
# A B C D E F G H I J K L M N O P Q R S T U V W X Y Z

Misc Television - Hockey Night In Canada Theme tab

This is the version made by Simple Plan for the Montreal Canadiens hockey night at RDS 
channel in Quebec)

P.M. = Dot
/ = Ascending slide
\ = Descending slide

  ...       ...          ...
|------------------------------------------------------|
|---------8---------10-8-----5-8-10-11-10----8-9-8---8-|
|-----5---------5--------555--------------10-------8---|
|-777---7---777---7------------------------------------|
|------------------------------------------------------|
|------------------------------------------------------|

  ...       ...          ...
|---------------------------------------------------------------------|
|---------8---------10-8-----5-8-10-11-10----8-9-8---8-8/11-11/12-13\-|
|-----5---------5--------555--------------10-------8------------------|
|-777---7---777---7---------------------------------------------------|
|---------------------------------------------------------------------|
|---------------------------------------------------------------------|
Tap to rate this tab
# A B C D E F G H I J K L M N O P Q R S T U V W X Y Z