Song name
# A B C D E F G H I J K L M N O P Q R S T U V W X Y Z

Misc Television - Doctor Who Theme tab

      |-------------|-------------|-------------|-------------|
      |-------------|-------------|-------------|-11----------|
      |-9-----------|-------------|-12----------|-------------|
Gtr 1.|-------------|-------------|-------------|-------------|
      |-------------|-------------|-------------|-------------|
      |-------------|-------------|-------------|-------------|

      |-------------|-------------|-------------|-------------|
      |-------------|-------------|-------------|-------------|
      |-13-13-13----|-13-13-13----|-13-13-13----|-16-16-16----|
Gtr 2.|-14-14-14----|-14-14-14----|-14-14-14----|-17-17-17----|
      |-14-14-14----|-14-14-14----|-14-14-14----|-17-17-17----|
      |-12-12-12----|-12-12-12----|-12-12-12----|-15-15-15----|

      |-------------|-------------|-------------|-------------|
      |-12----------|-------------|-------------|-------------|
      |-------------|-------------|-------------|-------------|
Gtr 1.|-------------|-------------|-------------|-------------|
      |-------------|-------------|-------------|-------------|
      |-------------|-------------|-------------|-------------|

      |-------------|-------------|-------------|-------------|
      |-------------|-------------|-------------|-------------|
      |-13-13-13----|-13-13-13----|-13-13-13----|-16-16-16----|
Gtr 2.|-14-14-14----|-14-14-14----|-14-14-14----|-17-17-17----|
      |-14-14-14----|-14-14-14----|-14-14-14----|-17-17-17----|
      |-12-12-12----|-12-12-12----|-12-12-12----|-15-15-15----|
                                       
      |-------------|-------------|-------------|-12-------12-|
      |-------------|-------------|-12----------|-------12----|
      |-12----------|-------------|-------------|-------------|
Gtr 1.|-------------|-------------|-------------|-------------|
      |-------------|-------------|-------------|-------------|
      |-------------|-------------|-------------|-------------|

      |-------------|-------------|-------------|-------------|
      |-------------|-------------|-------------|-------------|
      |-13-13-13----|-13-13-13----|-13-13-13----|-16-16-16----|
Gtr 2.|-14-14-14----|-14-14-14----|-14-14-14----|-17-17-17----|
      |-14-14-14----|-14-14-14----|-14-14-14----|-17-17-17----|
      |-12-12-12----|-12-12-12----|-12-12-12----|-15-15-15----|

      |-------------|-------------|-------------|-------------|
      |-------------|-------------|-------------|----------13-|
      |-15----------|-------------|-------------|-------------|
Gtr 1.|-------------|-------------|-------------|-------------|
      |-------------|-------------|-------------|-14----------|
      |-------------|-------------|-------------|-------------|

      |-------------|-------------|-------------|-------------|
      |-------------|-------------|-------------|-------------|
      |-13-13-13----|-13-13-13----|-13-13-13----|-8-8-8-------|
Gtr 2.|-14-14-14----|-14-14-14----|-14-14-14----|-9-9-9-------|
      |-14-14-14----|-14-14-14----|-14-14-14----|-9-9-9-------|
      |-12-12-12----|-12-12-12----|-12-12-12----|-7-7-7-------|

      
      |-------------|-------------|-------------|-------------|
      |-12----------|-------------|-------------|-------13/15-|
      |-------------|-------------|-------------|-------------|
Gtr 1.|-------------|-------------|-------------|-------------|
      |-------------|-------------|-------------|-------------|
      |-------------|-------------|-------------|-------------|
      |-------------|-------------|-------------|-------------|
      |-------------|-------------|-------------|-------------|
      |-13-13-13----|-13-13-13----|-8-8-8-------|-8-8-8-------|
Gtr 2.|-14-14-14----|-14-14-14----|-9-9-9-------|-9-9-9-------|
      |-14-14-14----|-14-14-14----|-9-9-9-------|-9-9-9-------|
      |-12-12-12----|-12-12-12----|-7-7-7-------|-7-7-7-------|
    
      |-------------|-------------|-------------|-------------|
      |-12----------|-------------|-------------|-------------|
      |-------------|-------------|-------------|-------------|
Gtr 1.|-------------|-------------|-------------|-------------|
      |-------------|-------------|-------------|-------------|
      |-------------|-------------|-------------|-------------|

      |-------------|-------------|-------------|-------------|
      |-------------|-------------|-------------|-------------|
      |-13-13-13----|-13-13-13----|-8-8-8-------|-8-8-8-------|
Gtr 2.|-14-14-14----|-14-14-14----|-9-9-9-------|-9-9-9-------|
      |-14-14-14----|-14-14-14----|-9-9-9-------|-9-9-9-------|
      |-12-12-12----|-12-12-12----|-7-7-7-------|-7-7-7-------|

      |-------------|-------------|-------------|-------------|
      |-12----------|-------------|-------------|-------------|
      |-------12----|-------------|-------------|-------------|
Gtr 1.|-------------|-14----------|-12----------|-------------|
      |-------------|-------14----|----------15-|-14----------|
      |-------------|-------------|-------------|-------------|

      |-------------|-------------|-------------|-------------|
      |-------------|-------------|-------------|-------------|
      |-13-13-13----|-13-13-13----|-16-16-16----|-8-8-8-------|
Gtr 2.|-14-14-14----|-14-14-14----|-17-17-17----|-9-9-9-------|
      |-14-14-14----|-14-14-14----|-17-17-17----|-9-9-9-------|
      |-12-12-12----|-12-12-12----|-15-15-15----|-7-7-7-------|

      |-------------|-------------|-------------|-------------|
      |-------------|-------------|----------13-|-12----------|
      |-------------|-------------|-------------|-------------|
Gtr 1.|-------------|-------------|-------------|-------------|
      |-------12----|-14-------15-|-14----------|-------------|
      |-------------|-------------|-------------|-------------|

      |-------------|-------------|-------------|-------------|
      |-------------|-------------|-------------|-------------|
      |-13-13-13----|-13-13-13----|-8-8-8-------|-8-8-8-------|
Gtr 2.|-14-14-14----|-14-14-14----|-9-9-9-------|-9-9-9-------|
      |-14-14-14----|-14-14-14----|-9-9-9-------|-9-9-9-------|
      |-12-12-12----|-12-12-12----|-7-7-7-------|-7-7-7-------|

      |-------------|-------------|-------------|-------------|
      |-------------|-13/15----13-|-12----------|-------------|
      |-------------|-------------|-------------|-------------|
Gtr 1.|-------------|-------------|-------------|-------------|
      |-------------|-------------|-------------|-------------|
      |-------------|-------------|-------------|-------------|

      |-------------|-------------|-------------|-------------|
      |-------------|-------------|-------------|-------------|
      |-8-8-8-------|-11-11-11----|-8-8-8-------|-8-8-8-------|
Gtr 2.|-9-9-9-------|-12-12-12----|-9-9-9-------|-9-9-9-------|
      |-9-9-9-------|-12-12-12----|-9-9-9-------|-9-9-9-------|
      |-7-7-7-------|-10-10-10----|-7-7-7-------|-7-7-7-------|

      |-------------|----------20-|-19----------|-------------|
      |-------------|-15----------|-------------|-------------|
      |-------------|-------------|-------------|-------------|
Gtr 1.|-------------|-------------|-------------|-------------|
      |-------------|-------------|-------------|-------------|
      |-------------|-------------|-------------|-------------|

      |-------------|-------------|-------------|-------------|
      |-------------|-------------|-------------|-------------|
      |-8-8-8-------|-11-11-11----|-13-13-13----|-13-13-13----|
Gtr 2.|-9-9-9-------|-12-12-12----|-14-14-14----|-14-14-14----|
      |-9-9-9-------|-12-12-12----|-14-14-14----|-14-14-14----|
      |-7-7-7-------|-10-10-10----|-12-12-12----|-12-12-12----|

      |-12----------|
      |-------------|
      |-------------|
Gtr 1.|-------------|
      |-------------|
      |-------------|

      |-------------|
      |-------------|
      |-13----------|
Gtr 2.|-14----------|
      |-14----------|
      |-12----------|
Tap to rate this tab
# A B C D E F G H I J K L M N O P Q R S T U V W X Y Z