Song name
# A B C D E F G H I J K L M N O P Q R S T U V W X Y Z

Misc Television - Game Of Thrones Theme tab

GAME OF THRONES THEME
as transcribed by Paul Quinn (http://www.facebook.com/PaulQuinnMusic)

Tuning: C G C G C Eb

INTRO:
Eb|--4-----------------4--------------4--------------4--------------|
C |--0--0--0--0--3h5------0--0--3h5------0--0--3h5------0--0--3h5---|
G |--0--------------------------------------------------------------|
C |--0--------------------------------------------------------------|
G |--0--------------------------------------------------------------|
C |--0--------------------------------------------------------------|


Eb|--4--------------4--------------4--------------4-----------------|
C |--0--0--0--4h5---0--0--0--4h5---0--0--0--4h5---0--0--0--4h5------|
G |--0--------------0--------------0--------------0-----------------|
C |--0--------------0--------------0--------------0-----------------|
G |--0--------------0--------------0--------------0-----------------|
C |--0--------------0--------------0--------------0-----------------|


Main:
Eb|--4-4-4-------------------0-0-0----------------------------------|
C |--0-----0--0--0-----3--5--------0-----3--5-----------------------|
G |--0-----------------------------0--------------------------------|
C |--0-----------------------------0--------------------------------|
G |--0-----------------------------0--------------------------------|
C |--0-----------------------------0--------------------------------|


Eb|-----------------------------------------------------------------|
C |--2-------------0--2-----------0--2-----------0--2---------------|
G |--0----0--0--3--------0--0--3--------0--0--3-----------0---0-----|
C |--2----------------------------------------------------2---2-----|
G |--0----------------------------------------------------0---0-----|
C |-----------------------------------------------------------------|


Eb|--2---2-2-2-----------------------2---2-2-2----------------------|
C |--2------------------------2h3-----------------------------------|
G |--3----------3--3-3-3-----------------------3--3-3-3-------------|
C |--2--------------------------------------------------------------|
G |--3--------------------------------------------------------------|
C |-----------------------------------------------------------------|


Eb|-----------------------------------------------------------------|
C |--3p2p0---------0----------0----------0--------------------------|
G |--0---------1h3----0-0-1h3----0-0-1h3----0-0-1h3-----------------|
C |--0--------------------------------------------------------------|
G |--0--------------------------------------------------------------|
C |--0--------------------------------------------------------------|


Eb|--4-4-4-------------------0-0-0----------------------------------|
C |--0-----0--0--0-----3--5--------0-----3--5-----------------------|
G |--0-----------------------------0--------------------------------|
C |--0-----------------------------0--------------------------------|
G |--0-----------------------------0--------------------------------|
C |--0-----------------------------0--------------------------------|


Eb|-----------------------------------------------------------------|
C |--2-------------0--2-----------0--2-----------0--2---------------|
G |--0----0--0--3--------0--0--3--------0--0--3-----------0---0-----|
C |--2----------------------------------------------------2---2-----|
G |--0----------------------------------------------------0---0-----|
C |-----------------------------------------------------------------|


Eb|--2---2-2-2-----------------------2---2-2-2----------------------|
C |--2------------------------2h3-----------------------------------|
G |--3----------3--3-3-3-----------------------3--3-3-3-------------|
C |--2--------------------------------------------------------------|
G |--3--------------------------------------------------------------|
C |-----------------------------------------------------------------|


Eb|-----------------------------------------------------------------|
C |--3p2p0---------0----------0----------0--------------------------|
G |--0---------1h3----0-0-1h3----0-0-1h3----0-0-1h3-----------------|
C |--0--------------------------------------------------------------|
G |--0--------------------------------------------------------------|
C |--0--------------------------------------------------------------|


Bridge:
Eb|--9------------7------------5------------4-----------------------|
C |--8------------3------------5------------0-----------------------|
G |--8------------3------------5------------0-----------------------|
C |--8------------3------------5------------0-----------------------|
G |--8------------3------------5------------0-----------------------|
C |--8------------3------------5------------0-----------------------|


Eb|---------x------2-2-2-/4-----------------------------------------|
C |---------3-3-3--x------0-----------0---------0---------0---------|
G |--1------3------2------0---0-0-1h3---0-0-1h3---0-0-1h3---0-0-1h3-|
C |--3------3------2------0-----------0---------0---------0---------|
G |--1------3------2------0---------------------------------0-0-----|
C |---------3------2------0---------------------------------0-0-----|


Eb|--9------------7------------5------------4-----------------------|
C |--8------------3------------5------------0-----------------------|
G |--8------------3------------5------------0-----------------------|
C |--8------------3------------5------------0-----------------------|
G |--8------------3------------5------------0-----------------------|
C |--8------------3------------5------------0-----------------------|


Eb|---------x------2-2-2-/4-----------------------------------------|
C |---------3-3-3--x------0-----------0---------0---------0---------|
G |--1------3------2------0---0-0-1h3---0-0-1h3---0-0-1h3---0-0-1h3-|
C |--3------3------2------0-----------0---------0---------0---------|
G |--1------3------2------0---------------------------------0-0-----|
C |---------3------2------0---------------------------------0-0-----|


Outro:
Eb|--9---------------9---------------9---------------9--------------|
C |-----7--7--8--10-----7--7--8--10-----7--7--8--10-----7--7--8--10-|
G |-----------------------------------------------------------------|
C |-----------------------------------------------------------------|
G |-----------------------------------------------------------------|
C |-----------------------------------------------------------------|
Tap to rate this tab
# A B C D E F G H I J K L M N O P Q R S T U V W X Y Z