Song name
# A B C D E F G H I J K L M N O P Q R S T U V W X Y Z

Misc Television - Fraggle Rock Theme tab

...FRAGGLE ROCK... by Tv Themes
------------------.............

*from the TV Series 1983*


Intro:

    C7                        F7       E7 F7
e|-------------------------|------------------|
B|-------------------------|------------------|
G|--------9----12-9--------|------------------|
D|--10-12---10------12-10--|--10-10-10-9--10--|
A|-------------------------|------------------|
E|-------------------------|------------------|

    D7                          G7    A7 Bb7 B7
e|---------------------------|-------------------|
B|---------------------------|-------------------|
G|--------11----14-11--------|--12-12-14-15/-16--|
D|--12-14----12-------14-12--|-------------------|
A|---------------------------|-------------------|
E|---------------------------|-------------------|

Verse 1:

C7                  F7
 Dance your cares a-way,
G7             F7
 Worry's for a-nother day,
C7             F7
 Let the music play;
G7       F7      C7
 Down at Fraggle Rock.

Interlude:

    C7                        F7       E7 F7
e|-------------------------|------------------|
B|-------------------------|------------------|
G|--------9----12-9--------|------------------|
D|--10-12---10------12-10--|--10-10-10-9--10--|
A|-------------------------|------------------|
E|-------------------------|------------------|

    D7                          G7    A7 Bb7 B7
e|---------------------------|-------------------|
B|---------------------------|-------------------|
G|--------11----14-11--------|--12-12-14-15/-16--|
D|--12-14----12-------14-12--|-------------------|
A|---------------------------|-------------------|
E|---------------------------|-------------------|

Verse 2:

C7                F7
 Work you cares a-way,
G7               F7
 Dancing's for a-nother day,
C7                F7
 Let the Fraggles play,
      G7
We're Gobo, Mokey,
F7                C7
 Wembley, Boober, Red.

Interlude:

    C7                        F7       E7 F7
e|-------------------------|------------------|
B|-------------------------|------------------|
G|--------9----12-9--------|------------------|
D|--10-12---10------12-10--|--10-10-10-9--10--|
A|-------------------------|------------------|
E|-------------------------|------------------|

    D7                          G7    A7 Bb7 B7
e|---------------------------|-------------------|
B|---------------------------|-------------------|
G|--------11----14-11--------|--12-12-14-15/-16--|
D|--12-14----12-------14-12--|-------------------|
A|---------------------------|-------------------|
E|---------------------------|-------------------|

Verse 3:

C7                  F7
 Dance your cares a-way,
G7             F7     C7
 Worry's for a-nother day,
C7             F7
 Let the music play;
G7       F7      C7
 Down at Fraggle Rock.
G7       F7      C7
 Down at Fraggle Rock,

Coda:

(n.c)                 C7
 Down at Fraggle Rock.


CHORD DIAGRAMS:
---------------

   C7        F7       E7        D7            G7          F#7

 EA DGBE  EAD GB E  EADGBE  E A D G B E   EA D G B E   EAD GB E
 8108988  x8108108  079797  101210111010  x1012101210  x9119119


Tabbed by Joel from cLuMsY, Bristol, England, 2005
(clumsyband@hotmail.com)
Tap to rate this tab
# A B C D E F G H I J K L M N O P Q R S T U V W X Y Z