Guitaretab - guitar tabs
Song name
# A B C D E F G H I J K L M N O P Q R S T U V W X Y Z

Misc Television - Fireman Sam Theme tab

Artist: Misc Television
Song: Fireman Sam Theme
Tuning: Standard (EADGBE)

A nice little easy tab here. Enjoy!

VERSE:

----------------|
--12---12---12--|
9----9----9----9|
----------------|
----------------|
----------------|

--------12--------|
9-12-14----9-12-14|
------------------|
------------------|
------------------|
------------------|

CHORUS:

---16-14------|
14-------16-14|
--------------|
--------------|
--------------|
--------------|
[ Tab from: http://www.guitaretab.com/m/misc-television/98710.html ]
---14-------16-14------|
14----16-14-------16-14|
-----------------------|
-----------------------|
-----------------------|
-----------------------|

---14----------------|
14----16-14-12-11-7-9|
---------------------|
---------------------|
---------------------|
---------------------|

------------------|
9-14-12-11-9-11-12|
------------------|
------------------|
------------------|
------------------|

e-mail: kingtommyboy@hotmail.com

Let me know if there's any problems. Fireman Sam rocks!
Related for Fireman Sam Theme tab
Advertisement will be closed in 10 seconds