Song name
# A B C D E F G H I J K L M N O P Q R S T U V W X Y Z

Misc Traditional - Malaguena tab

My first tab, plz rate!

Strumming pattern - Down, Down Up, Down, Down - Up, Down
e--0--0-0-0---0---0--0--0--0-0-0---0---0--0--|
B--0--0-0-0---0---0--0--0--0-0-0---0---0--0--|
G--1--1-1-1---1---1--1--2--2-2-2---2---2--2--| 2x
D--2--2-2-2---2---2--2--3--3-3-3---3---3--3--|
A--2--2-2-2---2---2--2--3--3-3-3---3---3--3--|
E--0--0-0-0---0---0--0--0--0-0-0---0---0--0--|

e---0-----0-----0-----0-----0----------------|
B--------------------------------------------|
G--------------------------------------------|
D--------------------------------------------|
A------------2---------------2---------------|
E-0----4----------0-----4--------------------|

e----0-----0-----0-----0-----0-----0---------|
B--------------------------------------------|
G--------------------------------------------|
D--------------------------------------------|
A-0-----3-----2-----0------------------------|
E-------------------------3-----1------------|

e----0-----0-----0-----0-----0-----0-----0-----0-----0-----0-----0-----0----|
B---------------------------------------------------------------------------|
G---------------------------------------------------------------------------|
D-------------------------------------------------------0-----2-----3-------|
A-------------2-----------------2-----0-----2-----3-------------------------|
E-0-----4-----------0-----4-------------------------------------------------|

e---0---0---0---0---0---0---0---0---0---0---0---0------|
B---------0-----------0-------1---0--------------------|
G-----1-----------1-------2-----------2---0------------|
D-2-----------2-------------------------------3--------|
A------------------------------------------------------|
E------------------------------------------------------|

e---0---0---0---0---0---0---0---0---0---0---0---0------|
B---------0-----------0-------0---1---3---5---6--------|
G-----1-----------1-------2----------------------------|
D-2-----------2----------------------------------------|
A------------------------------------------------------|
E------------------------------------------------------|

e-0--0-1-3-1-0----------------------------------|
B-0----------0--0-3-1-0--1--------0-1-0-3-1-0---|
G-1----------1--------------2-1-2-------------2-| 2x
D-2----------2----------------------------------|
A-2----------2----------------------------------|
E-0----------0----------------------------------|
                                                   End with
e--0--0-0-0---0---0--0--0--0-0-0---0---0--0-       e---0------|
B--0--0-0-0---0---0--0--0--0-0-0---0---0--0-       B---0------|
G--1--1-1-1---1---1--1--2--2-2-2---2---2--2- <- 2x G---1------|
D--2--2-2-2---2---2--2--3--3-3-3---3---3--3-       D---2------|
A--2--2-2-2---2---2--2--3--3-3-3---3---3--3-       A---2------|
E--0--0-0-0---0---0--0--0--0-0-0---0---0--0-       E---0------|

Plz comment and rate!
Tap to rate this tab
# A B C D E F G H I J K L M N O P Q R S T U V W X Y Z