Song name
# A B C D E F G H I J K L M N O P Q R S T U V W X Y Z

Misc Traditional - Yo Menamori Dun Aire tab

#----------------------------------PLEASE NOTE---------------------------------#
#This file is the author's own work and represents their interpretation of the #
#song. You may only use this file for private study, scholarship, or research. #
#------------------------------------------------------------------------------##
From: kharding@lamar.ColoState.EDU (Karol Harding)
Subject: TAB: Yo menamori dun aire (corr.)

(corrected version-sorry!)

YO MENAMORI DUN AIRE 
(I fell in love with her charms) Guitar solo version

This is a traditional Judeo-spanish (ladino) song.  It sounds very
much like "sunrise, Sunset" from Fiddler on the Roof at the beginning,
but this song is probably much older. From Nico Castel's Ladino songbook.
Tab by Karol Henderson Harding 1994. 

3/8            Em                              *=strum
                                *                                *
E|-------------|-------------0-|----0---3-2-0---|-------2-----0--|
B|-------------|------0------0-|--0-------------|--4------0---0--|
G|-------------|-0--3---3----0-|----------------|----4--------0--|
D|------1-2--4-|-------------2-|----------------|-------------2--|
A|--2-3--------|-------------2-|----------------|--2----2-----2--|
E|-------------|-------------0-|----0-----------|-------------0--|
                                                                
    Am(5)                                      Em     B7
    *                                           *
E|--5---3-2-0-----|--------0-2-0---|------------0---|------------|
B|--5---------4---|-0-1-4----------|-4----------0---|------------|
G|--6---------4-5-|----------------|-4-4--5-----0---|------2-----|
D|--7-------------|----------------|------------2---|----1-------|
A|--0---------2-0-|-2--------------|-2----0-----2---|--2---------|
E|----------------|----------------|------------0---|------------|
   
    Em       Em     B7(7)                 Am(8)      B7(7)    Am(5)
                     *              p
E|--0--2-3-5-7-8--|--7-------------|-5--7-8-7-5-3---|-7-------5--|
B|----------------|--8-------------|-5--------------|-5--5----5--|
G|----------------|--9-------------|----------------|-6-------5--|
D|--2-------------|--9-------------|----------------|---------7--|
A|----------------|--7-------------|-7--------------|-7-------0--|
E|----------------|----------------|----------------|------------|
   
   Em(7)                  B7         Em          B            Em
                          *                                    *
E|-7----5-3--2-0--|-3-----2--------|----0--3-2-0----|-2--------0-|
B|-5--------------|-------0--------|-0-----------4--|-0-0------0-|
G|----------------|-------2--------|-------------4-4|----------0-|
D|----------------|-------1--------|----------------|----------2-|
A|-7------------+2|--+2---2--------|-------------2--|-2--------2-|
E|-------------0--|-0--------------|----0-----------|----------0-|

    Am(5)                                      Em     B7
    *                                           *
E|--5---3-2-0-----|--------0-2-0---|------------0---|-----------|
B|--5---------4---|-0-1-4----------|-4----------0---|-----------|
G|--6---------4-5-|----------------|-4-4--5-----0---|------2----|
D|--7-------------|----------------|------------2---|----1------|
A|--0---------2-0-|-2--------------|-2----0-----2---|--2--------|
E|----------------|----------------|------------0---|-----------|
                                       Yo menamori dun aire p. 2

    B               Em               B7               Em
                    *                                 *
E|--2--0---2-0----|--+3------------|-2--0----2-0----|-0-----|
B|-------4-----1--|-0--------------|-0-----4-----1--|-0-----|
G|-------4--------|----------------|-2-----4--------|-0-----|
D|----------------|-2--------------|-1--------------|-2-----|
A|-------2--------|-2--------------|-2-----2--------|-2-----|
E|----------------|----------------|----------------|-0-----|


(this should have a rocking feeling:tra, la la la, la la
 can be played all with full chords if preferred.

s:*1-2   a   3                      *1- 2 a    3  a

E|-7--7--7---7----|-5--8---7-5-3---|-7--7-7-7---5--5-|
B|-7--7--7---7----|-5--------------|-7--7-7-7---5--5-|
G|-8--8--8---8----|-5--------------|-8--8-8-8---5--5-|
D|-9--9--9---9----|-7--------------|-9--9-9-9---7--7-|
A|-9--9--9---9----|-7--------------|-9--9-9-9---7--7-|
E|----------------|----------------|-----------------|
                                    s:d d u d
s:                * 1  * *    *  *
E|-5---3-7-5-3--2-|-5--5-5-5---3--3--3-3-3--|  
B|----------------|-5--5-5-5---3--3--3-3-3--|
G|----------------|-5--5-5-5---4--4--4-4-4--|
D|----------------|-7--7-7-7---5--5--5-5-5--|
A|----------------|-7--7-7-7---5--5--5-5-5--|
E|----------------|-------------------------|

    B               Em               B7               Em
                    *                                 *
E|--2--0---2-0----|--+3------------|-2--0----2-0----|-0-----|
B|-------4-----1--|-0--------------|-0-----4-----1--|-0-----|
G|-------4--------|----------------|-2-----4--------|-0-----|
D|----------------|-2--------------|-1--------------|-2-----|
A|-------2--------|-2--------------|-2-----2--------|-2-----|
E|----------------|----------------|----------------|-0-----|

  final ending:                      
 
E|----------------|-----0--2-3--0-||
B|----------------|---0---------0-||
G|----------------|-0-----------0-||
D|----------2--4--|-------------2-||
A|-------2--------|-------------2-||
E|--0-------------|-------------0-||



Tap to rate this tab
# A B C D E F G H I J K L M N O P Q R S T U V W X Y Z