Guitaretab - guitar tabs
Song name
# A B C D E F G H I J K L M N O P Q R S T U V W X Y Z

Misc Traditional - Oh My Darling Clementine tab

----------------------------------------------------------------------------
		            Oh My Darling Clementine	     
----------------------------------------------------------------------------


Tabbed by: Dave S. 
Email: prime-prine@hotmail.com

Tuning: Standard



|--------------|--0--0--0------|
|-1--1--1------|------------1--|
|-----------0--|---------------|
|-------2------|--------2------|
|-3------------|--3------------|
|-----------3--|------------3--|


|-----0--3----3--|--1p0---------|-----0--1---1---|
|--1-------------|-------3------|--3-------------|
|----------------|--------------|----------------|
|--------2-------|-----------0--|--------0-------|
|--3-------------|--3-----------|----------------|
|-------------3--|-------3------|--3---------3---|


|-0---0-----|---0--------|--------------|-----------|-0-0-0------|
|---3----1--|-1---3------|-0-3-1--------|-1-1-1-----|--------1---|
|-----------|--------0---|--------------|--------0--|------------|
|-0------2--|----------0-|--------2-----|-----2-----|-----2------|
|-----3-----|------------|-----3--------|-3---------|-3----------|
|-----------|-3---3------|-----------3--|--------3--|--------3---|

[ Tab from: http://www.guitaretab.com/m/misc-traditional/178455.html ]
|---0-3--3--|-1p0-------|---0-1--1--|-0---0-----|---0---------|
|-1---------|-----3-----|-3---------|---3----1--|-1---3-------|
|-----------|-----------|-----------|-----------|--------0----|
|-----2-----|--------0--|-----0-----|-0------2--|----------0--|
|-3---------|-3---------|-----------|-----3-----|-------------|
|--------3--|-----3-----|-3------3--|-----------|-3---3-------|


|----------|----|
|-0-3-1----|----|
|----------|----|
|----------|----|
|-----3----|----|
|----------|----|


Just the Melody

e|-----------0-0-0-------0-3---1-0-------0-1-1---0---0-------0-------------|
B|-1-1-1-----------1---1-----------3---3-----------3---1---1---3-----0-3-1-|
G|-------0-------------------------------------------------------0---------|
D|-------------------------------------------------------------------------|
A|-------------------------------------------------------------------------|
E|-------------------------------------------------------------------------|


Chords
     C
In a cavern in a canyon
C                G7
Excavating for a mine
                    C
Dwelt a miner forty niner
        G7            C
And his darling Clementine


      C
Oh my darling oh my darling
                    G7
Oh my darling Clementine
                          C
Thou art lost and gone forever
         G7          C
Dreadful sorry Clementine


| /  slide up
| \  slide down
| h  hammer-on
| p  pull-off
| ~  vibrato
| +  harmonic
| x  Mute note
===========================================================================
Related for Oh My Darling Clementine tab
Oh My Darling Clementine chords by Misc Traditional