Song name
# A B C D E F G H I J K L M N O P Q R S T U V W X Y Z

Misc Traditional - Hava Nagila tab

E|-------|-------|-------|--------|--------|-------|-------|--------|
H|-------|---0---|---1-0-|--------|--------|---0---|---1-0-|--------|
G|---1---|1-1-2-1|2-2---2|1-----1-|----1---|1-1-2-1|2-2---2|1-------|
D|2-2-3-2|-------|-------|-3-2-3--|-2-2-3-2|-------|-------|-3-2-3-2|
A|-------|-------|-------|--------|--------|-------|-------|--------|
E|-------|-------|-------|--------|--------|-------|-------|--------|


E|----------|-----------|----------|--------|
H|----------|-----------|----------|--------|
G|1-1-------|-----------|---------2|1-----1-|
D|---3-2-2-2|3-3-2-0-0-0|0-3-2-0-0-|-3-2-3--|
A|----------|-----------|----------|--------|
E|----------|-----------|----------|--------|


E|----------|-----------|----------|--------|
H|----------|-----------|----------|--------|
G|1-1-------|-----------|---------2|1-------|
D|---3-2-2-2|3-3-2-0-0-0|0-3-2-0-0-|-3-2-3-2|
A|----------|-----------|----------|--------|
E|----------|-----------|----------|--------|



E|-----|---------|----------------|
H|-----|---------|-------1-0-1-0--|
G|-2-2-|-2-2-2-2-|*-2-2-2---2---2*|
D|-----|---------|*--------------*|
A|-----|---------|----------------|
E|-----|---------|----------------|


E|-------------------|-----0-----0---|-------------|
H|-0-0-0-3-1-0-3-1-0-|0-0-0-0-0-0----|----1-0------|
G|*-----------------*|---------------|-------2-1-2-|
D|*-----------------*|-------------2-|-2-2---------|
A|-------------------|---------------|-------------|
E|-------------------|---------------|-------------|| 
Tap to rate this tab
# A B C D E F G H I J K L M N O P Q R S T U V W X Y Z