Misc Traditional - Happy Birthday tab

E----------------------------------------|
B-------------1--0---------------3--1----|
G-0--0--2--0--------0--0--2--0-----------|
D----------------------------------------|
A----------------------------------------|
E----------------------------------------|

E-------3--0-------------1--1--0-------------|
B------------1--1--0---------------1--3--1---|
G-0--0----------------2----------------------|
D--------------------------------------------|
A--------------------------------------------|
E--------------------------------------------|

This is my first tab =) I hope you'll like it.

-tafre
Tap to rate this tab
 
# A B C D E F G H I J K L M N O P Q R S T U V W X Y Z