Song name
# A B C D E F G H I J K L M N O P Q R S T U V W X Y Z

Misc Traditional - Leise Rieselt Der Schnee tab

Leise rieselt der Schnee

tabbed by Sarah Urbanek

6/8

E ---------------------------------|---------------------------------|
H -0-----0--------0----------------|---------------------------------|
G -----------2----------2---0------|--0----------0-------------------|
D ---------------------------------|--------2--------4-----2--0------|
A ---------------------------------|---------------------------------|
E ---------------------------------|---------------------------------|
1. Lei - se rie - selt der Schnee,__ still und starr ruht der See,___
2. In__  den Herz-en  wird?s warm,  still schweigt Kummer und Harm,__
3. Bald ist heil ? i - ge  Nacht,__   Chor der  Eng-el    er-wacht,___

E ---------------------------------|-------------------------------------|
H ----------------1---0------------|-------------------------------------|
G 2---1-----2---------------2--0---|---2-------------------------------0-|
D ---------------------------------|------2--2------4------2----4--------|
A ---------------------------------|-------------------------------------|
E ---------------------------------|-------------------------------------|
  Weih-nacht-lich gl?n-zet der Wald,__ freue dich, s?Christ-kind kommt bald!
  Sorg-e   des    Le-bens  ver-hallt,  freue dich, s?Christ-kind kommt bald!
  h?rt nur, wie  lie-blich es schallt, freue dich, s?Christ-kind kommt bald!
Tap to rate this tab
 
# A B C D E F G H I J K L M N O P Q R S T U V W X Y Z