Song name
# A B C D E F G H I J K L M N O P Q R S T U V W X Y Z

Misc Traditional - Scotland The Brave tab

Scotland The Brave

tabbed by Farseer - frsrblch@hotmail.com
Tabbed from sheet on Viper Piper

This is the complete song and it is correct, unlike the other tabs I could find. No
time whatsoever so use the sheet at http://www.viperpiper.org/forum/viewtopic.php?t=296
if you dont know the tune already.  Enjoy!

E|-----------------------------------------------------|
B|---------------3-3-2-3-------------------------------|
G|-------------2---------2-----0-4-0---2-------2-4-2-0-|
D|-0-0-2-4-0-4-------------4-0-------4---4-0-2---------|
A|-----------------------------------------------------|
E|-----------------------------------------------------|


|-------------------------------------------------------|
|---------------3-3-2-3---------------------------------|
|-------------2---------2-----0-4-0---2---------------2-|
|-0-0-2-4-0-4-------------4-0-------4---4-0-2-0-2-0-4---|
|-------------------------------------------------------|
|-------------------------------------------------------|

|---------------------------------------------------------|
|-3-3-2-3-------3-3-2-3-------3-3-2---3-2---3-2-----------|
|---------2-------------2---2-------4-----4-----4-2-0-----|
|-----------4-0-----------4---------------------------4-2-|
|---------------------------------------------------------|
|---------------------------------------------------------|

|---------------------------------------------------|
|---------------3-3-2-3-----------------------------|
|-------------2---------2-----0-4-0---2-------------|
|-0-0-2-4-0-4-------------4-0-------4---4-0-2-0-2-0-|
|---------------------------------------------------|
|---------------------------------------------------|
Tap to rate this tab
# A B C D E F G H I J K L M N O P Q R S T U V W X Y Z