Song name
# A B C D E F G H I J K L M N O P Q R S T U V W X Y Z

Misc Unsigned Bands - Star - Spangled Banner tab

e|---------0-----4---2---0--------------------------------|
B|0-------0--------------------------0-0-7/9--7-5-4-2-4C--|
G|-1-----1------------------1-3-4-------------------------|
D|--2-----------------------------------------------------|
A|--------------------------------------------------------|
E|--------------------------------------------------------|

e|0--0------|           |4-4-4-5-7-7-5-4-2-4-5-5--5-4-2-|
B|------0---|           |-------------------------------|
C|--------1-|           |-------------------------------|
D|---------2|Do twice   |-------------------------------|
A|----------|           |-------------------------------|
E|----------|           |-------------------------------|

e|0---------------------------------------2-4-5-4-2----|
B|-4---2-4-5------------0--5-5-5-4-2-2-2------------4--|
G|-------------1--3--4---------------------------------|
D|-----------------------------------------------------|
A|-----------------------------------------------------|
E|-----------------------------------------------------|

e|--------------2--4--5--7-----0--2--4--5----2--------|
B|5--4--0--0--5-----------------------------------5---|
G|----------------------------------------------------|
D|----------------------------------------------------|
A|----------------------------------------------------|
E|----------------------------------------------------|
Tap to rate this tab
 
# A B C D E F G H I J K L M N O P Q R S T U V W X Y Z