Song name
# A B C D E F G H I J K L M N O P Q R S T U V W X Y Z

Misc Unsigned Bands - Nursery Crimes - Ill Drown You On A Sea Of Acne tab

around at (3:24):
---------------------17*-------------------|
---17-------20^----------------------------|
-------------------------------------------|
-------------------------------------------|
-------------------------------------------|
-------------------------------------------|

then:
-------------------------------------------|
--------------------------------15-----15--|
12-12-14-12-11-12-11------11-12---11-12----|
---------------------12--------------------|
-------------------------------------------|
-------------------------------------------|

151412151412151412171514171514-191919191919|
-------------------------------------------|
-------------------------------------------|
-------------------------------------------|
-------------------------------------------|

12^-12^-12^--------------------------------|
15^-15^-15^-13-12------12-12-13-15---------|
-----------------------------------12------|
-------------------------------------------|
-------------------------------------------|
-------------------------------------------|

-------------------------------------------|
--------------------------------15-----15--|
12-12-14-12-11-12-11------11-12---11-12----|
---------------------12--------------------|
-------------------------------------------|
-------------------------------------------|


-----12-----12-----12-----14-----14------14|
-------------------------------------------|
11-12--11-12--11-12--11-12--11-12--11-12---|
-------------------------------------------|
-------------------------------------------|
-------------------------------------------|

151412151412151412171514171514-191919191919|
-------------------------------------------|
-------------------------------------------|
-------------------------------------------|
-------------------------------------------|

171717171515151514141414----------17-------|
------------------------17--171920-----17--|
-------------------------------------------|
-------------------------------------------|
-------------------------------------------|
-------------------------------------------|

that's all..
Tap to rate this tab
# A B C D E F G H I J K L M N O P Q R S T U V W X Y Z