Song name
# A B C D E F G H I J K L M N O P Q R S T U V W X Y Z

Misc Unsigned Bands - From A Whim - Memories And Meltdowns tab

*UPDATED*-PLEASE RATE!!

Intro
e-----------------------|
b--8-x-3-x-3-x-3-x------|
g--0-x-0-x-0-x-0-x------| x2
d--0-x-0-x-0-x-0-x------|
a--7-x-3-x-x-x-x-x------|
e--------x-3-x-2-x------|

the transition ===> After the intro is done 2x
e------------------|
b--3--3--3--3------|
g--0--0--0--0------|
d--0--0--0--0------|
a--3--5--3--5------|
e------------------|

verse(I want you to know.../When we were young.../It was just me....
e----------------------|
b--3-x-3-x-3-x-3-------|
g--0-x-0-x-0-x-0-------| 
d--0-x-0-x-0-x-0-------|
a--x-x-x-x-3-x-5-------|
e--3-x-2---------------|

chorus(I loved when you said...)    
e-----------------------|         
b--8-x-3-x-3-x-3-x------|         
g--0-x-0-x-0-x-0-x------| x3      
d--0-x-0-x-0-x-0-x------|
a--7-x-3-x-x-x-x-x------|
e--------x-3-x-2-x------|         

Transition(After chorus is played 3x's)(Cause I won't sleep..)
b--3--3--3--3------|
g--0--0--0--0------|
d--0--0--0--0------|
a--3--5--3--5------|
e------------------|

Intro-x2(Transition)
Verse-x4
Chorus-x3(Trans.)
Verse-x5
Chorus-x4(Trans.)
Verse-x6
Chorus-x4(Trans.)
END


Credit with help for the tab given to:Sammywooo on youtube, and Lamoni himself
Tap to rate this tab
# A B C D E F G H I J K L M N O P Q R S T U V W X Y Z