Guitaretab - guitar tabs
Song name
# A B C D E F G H I J K L M N O P Q R S T U V W X Y Z

Misc Unsigned Bands - Alex Chudnovsky - Russian Romance tab

Russian Romance - Classical Composition
Alex Chudnovsky,   http://youtube.com/watch?v=YZuMaVTTCns
I take no credit for this tab
                                                     
E||--3----------3--2--0--|--3----------2----------|--2----------3--2-----|
B||-----0---0------------|-----1---1------1---1---|-----4---4---------4--|
G||-------0---0----------|-------0---0------0---0-|-------2---2----------|
D||----------------------|------------------------|----------------------|
A||----------------------|--0----------0----------|--2----------2--------|
E||--0----------0--------|------------------------|----------------------|


                                                                         
-------------0----------|--3----------3--2--0--|--3----------2----------|
--0---------------------|-----0---0------------|-----1---1------1---1---|
-----0---0------0---0---|-------0---0----------|-------0---0------0---0-|
-------2---2------2---2-|----------------------|------------------------|
------------------------|----------------------|--0----------0----------|
--0----------0----------|--0----------0--------|------------------------|


                                                                       
--2----------3--2-3-2----|-------------12------|--3----------3--2--0--|
-----4---4------------4--|--0------------------|-----0---0------------|
-------2---2-------------|-----0---0-----------|-------0---0----------|
-------------------------|-------2---2---------|----------------------|
--2----------2-----------|---------------------|----------------------|
-------------------------|--0----------0-------|--0----------0--------|


                                                                         
--3----------2----------|--2----------3--2-----|--8----------7----------|
-----1---1------1---1---|-----4---4---------4--|-----0---0------0---0---|
-------0---0------0---0-|-------2---2----------|-------0---0------0---0-|
------------------------|----------------------|------------------------|
--0----------0----------|--2----------2--------|------------------------|
------------------------|----------------------|--0----------0----------|


                                                                           
--7----------7--5--3--|--10----------8----------|--2----------3--2-3-2----|
-----0---0------------|------5---5------5---5---|-----4---4------------4--|
-------0---0----------|--------5---5------5---5-|-------2---2-------------|
----------------------|-------------------------|-------------------------|
----------------------|-------------------------|--2----------2-----------|
--0----------0--------|--5-----------5----------|-------------------------|


                                                                    
--0----------12------|--7----------7--3--0--|--6----------6--3-----|
-----0---0-----------|-----0---0------------|-----5---5---------5--|
-------0---0---------|-------0---0----------|-------5---5----------|
---------------------|----------------------|----------------------|
---------------------|----------------------|--3----------3--------|
--0----------0-------|--0----------0--------|----------------------|

[ Tab from: http://www.guitaretab.com/m/misc-unsigned-bands/111370.html ]
                                                                       
--5----------5--2-----|--3----------0----------|--7----------7--3--0--|
-----4---4---------4--|-----0---0------0---0---|-----0---0------------|
-------4---4----------|-------0---0------0---0-|-------0---0----------|
----------------------|------------------------|----------------------|
--2----------2--------|------------------------|----------------------|
----------------------|--0----------0----------|--0----------0--------|


                                                                       
--6----------6--3-----|--5----------5--2-----|--2----------0----------|
-----5---5---------5--|-----4---4---------4--|-----0---0------0---0---|
-------5---5----------|-------4---4----------|-------0---0------0---0-|
----------------------|----------------------|------------------------|
--3----------3--------|--2----------2--------|------------------------|
----------------------|----------------------|--0----------0----------|


                                                                           
--12----------12--0-----|--10----------10--12--10--|--8----------8--7--5--|
------0---0----------8--|------9---9---------------|-----5---5------------|
--------0---0-----------|--------9---9-------------|-------5---5----------|
------------------------|--------------------------|----------------------|
------------------------|--7-----------7-----------|----------------------|
--0-----------0---------|--------------------------|--5----------5--------|


                                                    
--7----------7--3--0--|--2----------3--2-3-2----|--0----------7----------|
-----0---0------------|-----4---4------------4--|-----0---0------0---0---|
-------0---0----------|-------2---2-------------|-------0---0------0---0-|
----------------------|-------------------------|------------------------|
----------------------|--2----------2-----------|------------------------|
--0----------0--------|-------------------------|--0----------0----------|


                                                                             
-12----------7----------|-0----------7----------|-12----------7----------|
-----0---0------0---0---|----0---0------0---0---|-----0---0------0---0---|
-------0---0------0---0-|------0---0------0---0-|-------0---0------0---0-|
------------------------|-----------------------|------------------------|
------------------------|-----------------------|------------------------|
-0-----------0----------|-0----------0----------|-0-----------0----------|


                                                                       
--3----------3--2--0--|--3----------2----------|--2----------3--2-----|
-----0---0------------|-----1---1------1---1---|-----4---4---------4--|
-------0---0----------|-------0---0------0---0-|-------2---2----------|
----------------------|------------------------|----------------------|
----------------------|--0----------0----------|--2----------2--------|
--0----------0--------|------------------------|----------------------|


                                                                          
-------------0----------|--3----------3--2--0--|--10----------8----------|
--0---------------------|-----0---0------------|------5---5------5---5---|
-----0---0------0---0---|-------0---0----------|--------5---5------5---5-|
-------2---2------2---2-|----------------------|-------------------------|
------------------------|----------------------|-------------------------|
--0----------0----------|--0----------0--------|--5-----------5----------|


                                                 
--2----------3--2-3-2----|--0----------12------||
-----4---4------------4--|-----0---0-----------||
-------2---2-------------|-------0---0---------||
-------------------------|---------------------||
--2----------2-----------|---------------------||
-------------------------|--0----------0-------||

Related for Alex Chudnovsky - Russian Romance tab
Advertisement will be closed in 10 seconds