Song name
# A B C D E F G H I J K L M N O P Q R S T U V W X Y Z

Misc Unsigned Bands - Absence With Out Leave - The End Of Beginnings tab

Thank you for viewing this tab, i wrote it just of the top of my head!!
X=Palm Mute 
The notes at the start are tap ons! 

E|--------------------------------------------------------------------------|
B|14-7-10-7-14-7-10-7-14-7-10-7-14-7-10-7-14-7-9-7-14-7-9-7-14-7-9-7-14-7-9-|
G|--------------------------------------------------------------------------|
D|--------------------------------------------------------------------------|
A|--------------------------------------------------------------------------|
E|--------------------------------------------------------------------------|

E|--------------------------------------------------------------------------|
B|14-7-10-7-14-7-10-7-14-7-10-7-14-7-10-7-15-7-9-7-15-7-9-7-15-7-9-7-15-7-9-|
G|--------------------------------------------------------------------------|
D|--------------------------------------------------------------------------|
A|--------------------------------------------------------------------------|
E|--------------------------------------------------------------------------|

E|--------------------------------------------------------------------------|
B|--------------------------------------------------------------------------|
G|--------------------------------------------------------------------------|
D|-7--------------------------------------6---------------------------------|
A|-7--------------------------------------6---------------------------------|
E|-5--------------------------------------4---------------------------------|

E|--------------------------------------------------------------------------|
B|--------------------------------------------------------------------------|
G|--------------------------------------------------------------------------|
D|-7--------------------------------------12--------------------------------|
A|-7--------------------------------------12--------------------------------|
E|-5--------------------------------------10--------------------------------|

E|--------------------------------------------------------------------------|
B|---------------------------2-222-222222-----------------------------------|
G|---------------------------2-222-222222-----------------------------------|
D|-2-222-222222-5-555-555555-0-000-000000-7-777-777777----------------------|
A|-2-222-222222-5-555-555555-x-xxx-xxxxxx-7-777-777777----------------------|
E|-0-000-000000-3-333-333333-x-xxx-xxxxxx-5-555-555555----------------------|


E|--------------------------------------------------------------------------|
B|---------------------------2-222-222222-----------------------------------|
G|---------------------------2-222-222222-----------------------------------|
D|-2-222-222222-5-555-555555-0-000-000000-7-777-777777----------------------|
A|-2-222-222222-5-555-555555-x-xxx-xxxxxx-7-777-777777----------------------|
E|-0-000-000000-3-333-333333-x-xxx-xxxxxx-5-555-555555----------------------|
  XXXXXXXXXXXXXXXXXXXXXXXXXXXXXXXXXXXXXXXXXXXXXXXXXXXXXXXXXXXXXXXXXXXXXXXXXX


Verse
Chorus
Verse
Chorus
Bridge
Solo
Verse
Chorus
Outro

The solo will be out on another tab soon!
Tap to rate this tab
# A B C D E F G H I J K L M N O P Q R S T U V W X Y Z