Song name
# A B C D E F G H I J K L M N O P Q R S T U V W X Y Z

Misc Unsigned Bands - Every Time I Fall - A Cry For Help In A Shattered Life tab

intro
clean
e---------------------------------------------|
b---------------------------------------------|
g---------------------------------------------|
d---4--6--7--6-6h7p6-4---4--4--4--------------|
a----4--4--4--------------5--5--5--4-4h5p4-0--|
d--4--4--4--4-----------0--0--0--0------------|   x3

verses
dist.
e--------------------------------    -------------------------------------|
b--------------------------------    -------------------------------------|
g--------------------------------    -------------------------------------|
d-444444444444444x00000000000000-    -444444444444444x000000000000000-0-2-|
a-444444444444444x00000000000000-    -444444444444444x000000000000000-0-2-|
d-444444444444444x00000000000000-x3  -444444444444444x000000000000000-0-2-|
  ............... ..............      ............... ...............

chorus
dist.
e--------------------------  -----|
b--------------------------  --12-|
g---66---66-6/77777-222222-  -/11-|
d---66---66-6/77777-222222-  -/9--|
a-44---44------0000-222222-  -/9--|
d-44---44------0000-222222-x3-/9--| let it ring
  ..   ..

intro x2
verse
chorus

transition to bridge
dist.
e----------------|
b----------------|
g----------------|
d-0-0-00-2-2-22--|
a-0-0-00-2-2-22--|
d-0-0-00-2-2-22--|
  . . .. . . ..

bridge
dist.
e--------------------------|
b--------------------------|
g--------------------------|
d-4444-7b-7777-9b-00000000-|
a-4444----7777----00000000-|
d-4444----7777----00000000-|x4

(bass rhythm for song)
d--------------------------------|
a--------------------------------|
d4444444-77777777-00000000000000-|

solo

those are two digit numbers
e------------------------------------------------------------------|
b------------------------------------------------------------------|
g------------------------------------------------------------------|
d-------------------------------------------------1414141414141414-|
a-1212121212121212-11111111-991111-12121212121212------------------|
d------------------------------------------------------------------|
  ................ ........ ...... ..............
e--------------------------------------------------------------------------|
b-12h15-14-12-14-15-15p14p12---------------9-9-10-10-9-12-9h10p9-----------|
g---------------------------14-13---------9-9-9--9--9-9---------9----------|
d--------------------------------14~~~\0-----------------------------------|
a--------------------------------------------------------------------------|
d--------------------------------------------------------------------------|

e----------------------------------------------------------------14~~\-----|
b-10p9p7h10p9p7h10p9p7h10p9p7h10p9p7h10p9p7h10p9p7h10p9p7h10p9p7-12~~\-----|
g--------------------------------------------------------------------------|
d--------------------------------------------------------------------------|
a--------------------------------------------------------------------------|
d--------------------------------------------------------------------------|
(fret tap)
e-12h4p3p2-12h4p3p2-12h4p3p2-12h4p3p2-14h4p3p2-14h4p3p2-14h4p3p2-14h4p3p2---|
b---------------------------------------------------------------------------|
g---------------------------------------------------------------------------|
d---------------------------------------------------------------------------|
a---------------------------------------------------------------------------|
d---------------------------------------------------------------------------|
(fret tap cont.)
e-16h4p3p2-16h4p3p2-16h4p3p2-16h4p3p2-17--h12p4p2-h12p4p2-h12p4p2-h12p4p2--|
b--------------------------------------------------------------------------|
g--------------------------------------------------------------------------|
d--------------------------------------------------------------------------|
a--------------------------------------------------------------------------|
d--------------------------------------------------------------------------|
(fret tap cont.)
e-h9p4p2-h9p4p2-h9p4p2-h9p4p2-h5p4p2-h5p4p2-h5p4p2-h5p4p2-2/12h14p12h14p12-|
b--------------------------------------------------------------------------|
g--------------------------------------------------------------------------|
d--------------------------------------------------------------------------|
a--------------------------------------------------------------------------|
d--------------------------------------------------------------------------|

e-h1412h14p12h14p12-12h17p17-12h17p17-12h17p17-12h17p17-12h19p17-12h19p17-|
b-------------------------------------------------------------------------|
g-------------------------------------------------------------------------|
d-------------------------------------------------------------------------|
a-------------------------------------------------------------------------|
d-------------------------------------------------------------------------|

e-12h19p17-12h19p17-12h21p17-12h21p17-12h21p17-12h21p17-12h17p14-12h17p14-|
b-------------------------------------------------------------------------|
g-------------------------------------------------------------------------|
d-------------------------------------------------------------------------|
a-------------------------------------------------------------------------|
d-------------------------------------------------------------------------|

e-12h17p14-12h17p14-12h17p14-12h1412h14p12h14p12h1412h14p12h14p12\0~~~----|
b-------------------------------------------------------------------------|
g-------------------------------------------------------------------------|
d-------------------------------------------------------------------------|
a-------------------------------------------------------------------------|
d-------------------------------------------------------------------------|
end solo.

post solo
dist.
e---------------------------------------------|
b---------------------------------------------|
g---------------------------------------------|
d---4--6--7--666h7p6-4---4--4--4--------------|
a---------------------------------44-4h5p4-0--|
d-44--4--4--4----------00--0--0--0------------|   x2

chorus x2
outro

e-------------------|
b-------------------|
g-------------------|
d-6666/9~--4-7-0-2--|
a-4444/7~--4-7-0-2--|
d-4444/7~--4-7-0-2--|
           . . . .
end
Tap to rate this tab
# A B C D E F G H I J K L M N O P Q R S T U V W X Y Z