Guitaretab - guitar tabs
Song name
# A B C D E F G H I J K L M N O P Q R S T U V W X Y Z

Misc Unsigned Bands - Caspian - Sea Lawn tab

Artist: Caspian
-Album: The Four Trees
--Song: Sea Lawn

Transcribed by Exo M7.

For questions/comments/tab requests, the email is jd0922[at]yahoo[dot]com.

Notes

Guitar 1, electric: Heavy reverb, delay, mild distortion

Guitar 2, acoustic: Capo 2

====================================

Intro

Electric (Guitar 1)

1st:------------------------|
2nd:->10------->8------->7--|
3rd:------------------------|
4th:------------------------|
5th:------------------------|
6th:------------------------| x2

1st:-9----------10------10--|
2nd:---------------10-------|
3rd:------------------------|
4th:------------------------|
5th:------------------------|
6th:------------------------|

Verse

Acoustic (Guitar 2)

1st:------------------------------------------------------------------|
2nd:-----1-------1-------1-------1-------1---1-------1---1-------1----|
3rd:---0---0---0---0---0---0---0---0---0---0---0---0---0---0---0---0--|
4th:---------0-------2------------------------------------------------|
5th:-3-----------------------2-------0-----------0-----------0--------|
6th:------------------------------------------------------------------|

1st:------------------------------------------------------------------|
2nd:-----1-------1-------1-------1-------1---1-------1---1-------1----|
3rd:---0---0---0---0---0---0---0---0---0---0---0---0---0---0---0---0--|
4th:---------0-------2-------5-------3-----------3-----------3--------|
5th:-3----------------------------------------------------------------|
6th:------------------------------------------------------------------|

x2

1st:------------------------------------------------------------------|
2nd:-----1-------1-------1-------1-------1---1-------1---1-------1----|
3rd:---0---0---0---0---0---0---0---0---0---0---0---0---0---0---0---0--|
4th:---------0-------2------------------------------------------------|
5th:-3-----------------------2-------0-----------0-----------0--------|
6th:------------------------------------------------------------------|

1st:-------------------------------------0-------0-------0-------0----|
2nd:-----1-------1-------1-------1-----1---1---1---1---1---1---1---1--|
3rd:---0---0---0---0---0---0---0---0-0-------2-------4-------5--------|
4th:---------0-------2-------3----------------------------------------|
5th:-3----------------------------------------------------------------|
6th:------------------------------------------------------------------|

Chorus

Acoustic (Guitar 2)
Electric (Guitar 1)

1st:----------------------------------|
2nd:-----1---1-----1-----1-----1---1--|
3rd:---0-------0-----0-----0-----0----|
4th:----------------------------------|
5th:-3-----3-----3-----3-----3--------|
6th:----------------------------------|

1st:----------------------------------|
2nd:-------------------10/----7-------|
3rd:----------------------------------|
4th:----------------------------------|
5th:----------------------------------|
6th:----------------------------------|

1st:----------------------------------|
2nd:---1-----1-----1-----1-----1---1--|
3rd:-----0-----0-----0-----0-----0----|
4th:----------------------------------|
5th:-2-----2-----2-----2-----2--------|
6th:----------------------------------|

1st:----------------------------------|
2nd:-------------------10/----5-------|
3rd:----------------------------------|
4th:----------------------------------|
5th:----------------------------------|
6th:----------------------------------|

1st:----------------------------------|
2nd:---1-----1-----1-----1-----1---1--|
3rd:-----0-----0-----0-----0-----0----|
4th:----------------------------------|
5th:-0-----0-----0-----0-----0--------|
6th:----------------------------------|

1st:----------------------------------|
2nd:-------------------10/----3-------|
3rd:----------------------------------|
4th:----------------------------------|
5th:----------------------------------|
6th:----------------------------------|

1st:----------------------------------|
2nd:---1-----1-----1-----1-----1---1--|
3rd:-----0-----0-----0-----0-----0----|
4th:----------------------------------|
5th:----------------------------------|
6th:-3-----3-----3-----3-----3--------|
[ Tab from: http://www.guitaretab.com/m/misc-unsigned-bands/114204.html ]
1st:----------------------------------|
2nd:-------------------10/----7-------|
3rd:----------------------------------|
4th:----------------------------------|
5th:----------------------------------|
6th:----------------------------------|

---

1st:----------------------------------|
2nd:-----1---1-----1-----1-----1---1--|
3rd:---0-------0-----0-----0-----0----|
4th:----------------------------------|
5th:-3-----3-----3-----3-----3--------|
6th:----------------------------------|

1st:----------------------------------|
2nd:--------------------7/----8-------|
3rd:----------------------------------|
4th:----------------------------------|
5th:----------------------------------|
6th:----------------------------------|

1st:----------------------------------|
2nd:---1-----1-----1-----1-----1---1--|
3rd:-----0-----0-----0-----0-----0----|
4th:----------------------------------|
5th:-2-----2-----2-----2-----2--------|
6th:----------------------------------|

1st:----------------------------------|
2nd:--------------------7/----5-------|
3rd:----------------------------------|
4th:----------------------------------|
5th:----------------------------------|
6th:----------------------------------|

1st:----------------------------------|
2nd:---1-----1-----1-----1-----1---1--|
3rd:-----0-----0-----0-----0-----0----|
4th:----------------------------------|
5th:-0-----0-----0-----0-----0--------|
6th:----------------------------------|

1st:----------------------------------|
2nd:--------------------5/----3-------|
3rd:----------------------------------|
4th:----------------------------------|
5th:----------------------------------|
6th:----------------------------------|

1st:----------------------------------|
2nd:---1-----1-----1-----1-----1---1--|
3rd:-----0-----0-----0-----0-----0----|
4th:----------------------------------|
5th:----------------------------------|
6th:-3-----3-----3-----3-----3--------|

1st:----------------------------------|
2nd:-------------------10/----7-------|
3rd:----------------------------------|
4th:----------------------------------|
5th:----------------------------------|
6th:----------------------------------|

Bridge

Electric (Guitar 1)

Acoustic:
Plays D (C shape on capo 2)

1st:-------------------------------|
2nd:-10/7----10/5----10/3----10/5--|
3rd:-------------------------------|
4th:-------------------------------|
5th:-------------------------------|
6th:-------------------------------| x2

1st:---------10/9------------------|
2nd:-10/12-----------10/12----7/8--|
3rd:-------------------------------|
4th:-------------------------------|
5th:-------------------------------|
6th:-------------------------------| x2

1st:-------------------------------|
2nd:-10/7----10/5----10/3-----3/5--|
3rd:-------------------------------|
4th:-------------------------------|
5th:-------------------------------|
6th:-------------------------------|

Ending

Electric Guitar 1

1st:-------5--9--7----------5--9--7----5--|
2nd:-7--5-------------7--5----------------|
3rd:--------------------------------------|
4th:--------------------------------------|
5th:--------------------------------------|
6th:--------------------------------------|

Electric Guitar 2

1st:--------------------------------------|
2nd:-7--5-------------7--5----------------|
3rd:-------7--6--4----------7--6--4----2--|
4th:--------------------------------------|
5th:--------------------------------------|
6th:--------------------------------------|

---

Electric Guitar 1

1st:-------5--9--7----------5--9--7--10--9--12--|
2nd:-7--5-------------7--5----------------------|
3rd:--------------------------------------------|
4th:--------------------------------------------|
5th:--------------------------------------------|
6th:--------------------------------------------|

Electric Guitar 2

1st:--------------------------------------|
2nd:-7--5-------------7--5----------------|
3rd:-------7--6--4----------7--6--4----2--|
4th:--------------------------------------|
5th:--------------------------------------|
6th:--------------------------------------|

x3

---

Electric (Guitar 1)

1st:-------9-7---------9-7-10-9-12--|
2nd:-----7-----------7--------------|
3rd:-7-9---------7-9----------------|
4th:--------------------------------|
5th:--------------------------------|
6th:--------------------------------| x4

http://www.caspianmusic.net/
http://en.wikipedia.org/wiki/Caspian_(band)
Related for Caspian - Sea Lawn tab
Advertisement will be closed in 10 seconds