Song name
# A B C D E F G H I J K L M N O P Q R S T U V W X Y Z

Misc Unsigned Bands - A Twizdid Tale - A Large Crucifix On A Bloody Hill tab

Help us improve GuitareTab! Take a short survey!
This is a good song if you play it right.


-----------------------------------|
-----------------------------------|
----------0-0-0-------3-3-3------0-|
----0-0-0-------3-3-3-------1-1-3--|
-----------------------------------|
-----------------------------------|

Repeat through out the rest.
----------------------------------------------------------|
-------10-11-10-------9-10-9-------8-9-8-------7-8-7------|
----------------------------------------------------------|
----------------------------------------------------------|
----------------------------------------------------------|
--0-0-0---------0-0-0--------0-0-0-------0-0-0------0-0-0-|


There you have it. Use Heavy Distortion.


      =)matthewsims
Related for A Twizdid Tale - A Large Crucifix On A Bloody Hill tab